  0
SECTION
  2
HEADER
  9
$ACADVER
  1
AC1014
  9
$ACADMAINTVER
 70
     9
  9
$DWGCODEPAGE
  3
ANSI_932
  9
$INSBASE
 10
0.0
 20
0.0
 30
0.0
  9
$EXTMIN
 10
125.0
 20
56.0
 30
0.0
  9
$EXTMAX
 10
658.0
 20
551.5
 30
0.0
  9
$LIMMIN
 10
0.0
 20
0.0
  9
$LIMMAX
 10
841.0
 20
594.0
  9
$ORTHOMODE
 70
     0
  9
$REGENMODE
 70
     1
  9
$FILLMODE
 70
     1
  9
$QTEXTMODE
 70
     0
  9
$MIRRTEXT
 70
     1
  9
$DRAGMODE
 70
     2
  9
$LTSCALE
 40
1.0
  9
$OSMODE
 70
    37
  9
$ATTMODE
 70
     1
  9
$TEXTSIZE
 40
2.5
  9
$TRACEWID
 40
1.0
  9
$TEXTSTYLE
  7
STANDARD
  9
$CLAYER
  8
LAY-1
  9
$CELTYPE
  6
BYLAYER
  9
$CECOLOR
 62
   256
  9
$CELTSCALE
 40
1.0
  9
$DELOBJ
 70
     1
  9
$DISPSILH
 70
     0
  9
$DIMSCALE
 40
1.0
  9
$DIMASZ
 40
2.5
  9
$DIMEXO
 40
0.625
  9
$DIMDLI
 40
3.75
  9
$DIMRND
 40
0.0
  9
$DIMDLE
 40
0.0
  9
$DIMEXE
 40
1.25
  9
$DIMTP
 40
0.0
  9
$DIMTM
 40
0.0
  9
$DIMTXT
 40
2.5
  9
$DIMCEN
 40
2.5
  9
$DIMTSZ
 40
0.0
  9
$DIMTOL
 70
     0
  9
$DIMLIM
 70
     0
  9
$DIMTIH
 70
     0
  9
$DIMTOH
 70
     0
  9
$DIMSE1
 70
     0
  9
$DIMSE2
 70
     0
  9
$DIMTAD
 70
     1
  9
$DIMZIN
 70
     8
  9
$DIMBLK
  1

  9
$DIMASO
 70
     1
  9
$DIMSHO
 70
     1
  9
$DIMPOST
  1

  9
$DIMAPOST
  1

  9
$DIMALT
 70
     0
  9
$DIMALTD
 70
     3
  9
$DIMALTF
 40
0.03937007874016
  9
$DIMLFAC
 40
1.0
  9
$DIMTOFL
 70
     1
  9
$DIMTVP
 40
0.0
  9
$DIMTIX
 70
     0
  9
$DIMSOXD
 70
     0
  9
$DIMSAH
 70
     0
  9
$DIMBLK1
  1

  9
$DIMBLK2
  1

  9
$DIMSTYLE
  2
ISO-25
  9
$DIMCLRD
 70
     0
  9
$DIMCLRE
 70
     0
  9
$DIMCLRT
 70
     0
  9
$DIMTFAC
 40
1.0
  9
$DIMGAP
 40
0.625
  9
$DIMJUST
 70
     0
  9
$DIMSD1
 70
     0
  9
$DIMSD2
 70
     0
  9
$DIMTOLJ
 70
     0
  9
$DIMTZIN
 70
     8
  9
$DIMALTZ
 70
     0
  9
$DIMALTTZ
 70
     0
  9
$DIMFIT
 70
     3
  9
$DIMUPT
 70
     0
  9
$DIMUNIT
 70
     2
  9
$DIMDEC
 70
     2
  9
$DIMTDEC
 70
     2
  9
$DIMALTU
 70
     2
  9
$DIMALTTD
 70
     3
  9
$DIMTXSTY
  7
STANDARD
  9
$DIMAUNIT
 70
     0
  9
$LUNITS
 70
     2
  9
$LUPREC
 70
     4
  9
$SKETCHINC
 40
1.0
  9
$FILLETRAD
 40
10.0
  9
$AUNITS
 70
     0
  9
$AUPREC
 70
     0
  9
$MENU
  1
.
  9
$ELEVATION
 40
0.0
  9
$PELEVATION
 40
0.0
  9
$THICKNESS
 40
0.0
  9
$LIMCHECK
 70
     0
  9
$CHAMFERA
 40
0.0
  9
$CHAMFERB
 40
0.0
  9
$CHAMFERC
 40
0.0
  9
$CHAMFERD
 40
0.0
  9
$SKPOLY
 70
     0
  9
$TDCREATE
 40
2458271.553434722
  9
$TDUPDATE
 40
2458271.553434722
  9
$TDINDWG
 40
0.0000000116
  9
$TDUSRTIMER
 40
0.0000000116
  9
$USRTIMER
 70
     1
  9
$ANGBASE
 50
0.0
  9
$ANGDIR
 70
     0
  9
$PDMODE
 70
     0
  9
$PDSIZE
 40
0.0
  9
$PLINEWID
 40
0.0
  9
$COORDS
 70
     1
  9
$SPLFRAME
 70
     0
  9
$SPLINETYPE
 70
     6
  9
$SPLINESEGS
 70
     8
  9
$ATTDIA
 70
     0
  9
$ATTREQ
 70
     1
  9
$HANDLING
 70
     1
  9
$HANDSEED
  5
75A
  9
$SURFTAB1
 70
     6
  9
$SURFTAB2
 70
     6
  9
$SURFTYPE
 70
     6
  9
$SURFU
 70
     6
  9
$SURFV
 70
     6
  9
$UCSNAME
  2

  9
$UCSORG
 10
0.0
 20
0.0
 30
0.0
  9
$UCSXDIR
 10
1.0
 20
0.0
 30
0.0
  9
$UCSYDIR
 10
0.0
 20
1.0
 30
0.0
  9
$PUCSNAME
  2

  9
$PUCSORG
 10
0.0
 20
0.0
 30
0.0
  9
$PUCSXDIR
 10
1.0
 20
0.0
 30
0.0
  9
$PUCSYDIR
 10
0.0
 20
1.0
 30
0.0
  9
$USERI1
 70
     0
  9
$USERI2
 70
     0
  9
$USERI3
 70
     0
  9
$USERI4
 70
     0
  9
$USERI5
 70
     0
  9
$USERR1
 40
0.0
  9
$USERR2
 40
0.0
  9
$USERR3
 40
0.0
  9
$USERR4
 40
0.0
  9
$USERR5
 40
0.0
  9
$WORLDVIEW
 70
     1
  9
$SHADEDGE
 70
     3
  9
$SHADEDIF
 70
    70
  9
$TILEMODE
 70
     1
  9
$MAXACTVP
 70
    64
  9
$PINSBASE
 10
0.0
 20
0.0
 30
0.0
  9
$PLIMCHECK
 70
     0
  9
$PEXTMIN
 10
1.000000000000000E+20
 20
1.000000000000000E+20
 30
1.000000000000000E+20
  9
$PEXTMAX
 10
-1.000000000000000E+20
 20
-1.000000000000000E+20
 30
-1.000000000000000E+20
  9
$PLIMMIN
 10
0.0
 20
0.0
  9
$PLIMMAX
 10
420.0
 20
297.0
  9
$UNITMODE
 70
     0
  9
$VISRETAIN
 70
     1
  9
$PLINEGEN
 70
     0
  9
$PSLTSCALE
 70
     1
  9
$TREEDEPTH
 70
  3020
  9
$PICKSTYLE
 70
     1
  9
$CMLSTYLE
  2
STANDARD
  9
$CMLJUST
 70
     0
  9
$CMLSCALE
 40
20.0
  9
$PROXYGRAPHICS
 70
     1
  9
$MEASUREMENT
 70
     1
  0
ENDSEC
  0
SECTION
  2
CLASSES
  0
CLASS
  1
ACDBDICTIONARYWDFLT
  2
AcDbDictionaryWithDefault
  3
ObjectDBX Classes
 90
        0
280
     0
281
     0
  0
CLASS
  1
VISUALSTYLE
  2
AcDbVisualStyle
  3
ObjectDBX Classes
 90
     4095
280
     0
281
     0
  0
CLASS
  1
MATERIAL
  2
AcDbMaterial
  3
ObjectDBX Classes
 90
     1153
280
     0
281
     0
  0
CLASS
  1
SCALE
  2
AcDbScale
  3
ObjectDBX Classes
 90
     1153
280
     0
281
     0
  0
CLASS
  1
TABLESTYLE
  2
AcDbTableStyle
  3
ObjectDBX Classes
 90
     4095
280
     0
281
     0
  0
CLASS
  1
MLEADERSTYLE
  2
AcDbMLeaderStyle
  3
ACDB_MLEADERSTYLE_CLASS
 90
     4095
280
     0
281
     0
  0
CLASS
  1
SUN
  2
AcDbSun
  3
SCENEOE
 90
     1153
280
     0
281
     0
  0
CLASS
  1
DICTIONARYVAR
  2
AcDbDictionaryVar
  3
ObjectDBX Classes
 90
        0
280
     0
281
     0
  0
CLASS
  1
XRECORD
  2
AcDbXrecord
  3
ObjectDBX Classes
 90
        0
280
     0
281
     0
  0
CLASS
  1
LWPOLYLINE
  2
AcDbPolyline
  3
ObjectDBX Classes
 90
        0
280
     0
281
     1
  0
CLASS
  1
HATCH
  2
AcDbHatch
  3
ObjectDBX Classes
 90
        0
280
     0
281
     1
  0
CLASS
  1
ACDBPLACEHOLDER
  2
AcDbPlaceHolder
  3
ObjectDBX Classes
 90
        0
280
     0
281
     0
  0
CLASS
  1
LAYOUT
  2
AcDbLayout
  3
ObjectDBX Classes
 90
        0
280
     0
281
     0
  0
ENDSEC
  0
SECTION
  2
TABLES
  0
TABLE
  2
VPORT
  5
8
102
{ACAD_XDICTIONARY
360
74F
102
}
330
0
100
AcDbSymbolTable
 70
     1
  0
VPORT
  5
29
330
8
100
AcDbSymbolTableRecord
100
AcDbViewportTableRecord
  2
*ACTIVE
 70
     0
 10
0.0
 20
0.0
 11
1.0
 21
1.0
 12
391.5
 22
303.75
 13
0.0
 23
0.0
 14
10.0
 24
10.0
 15
10.0
 25
10.0
 16
0.0
 26
0.0
 36
1.0
 17
0.0
 27
0.0
 37
0.0
 40
495.5
 41
1.075681130171544
 42
50.0
 43
0.0
 44
0.0
 50
0.0
 51
0.0
 71
     0
 72
  1000
 73
     1
 74
     3
 75
     0
 76
     0
 77
     0
 78
     0
  0
ENDTAB
  0
TABLE
  2
LTYPE
  5
5
330
0
100
AcDbSymbolTable
 70
    12
  0
LTYPE
  5
14
330
5
100
AcDbSymbolTableRecord
100
AcDbLinetypeTableRecord
  2
BYBLOCK
 70
     0
  3

 72
    65
 73
     0
 40
0.0
  0
LTYPE
  5
15
330
5
100
AcDbSymbolTableRecord
100
AcDbLinetypeTableRecord
  2
BYLAYER
 70
     0
  3

 72
    65
 73
     0
 40
0.0
  0
LTYPE
  5
16
330
5
100
AcDbSymbolTableRecord
100
AcDbLinetypeTableRecord
  2
CONTINUOUS
 70
     0
  3
Solid line
 72
    65
 73
     0
 40
0.0
  0
LTYPE
  5
6E
330
5
100
AcDbSymbolTableRecord
100
AcDbLinetypeTableRecord
  2
EXLTYPE0
 70
     0
  3
一点鎖線2
 72
    65
 73
     4
 40
8.0
 49
5.0
 74
     0
 49
-1.0
 74
     0
 49
1.0
 74
     0
 49
-1.0
 74
     0
  0
LTYPE
  5
6F
330
5
100
AcDbSymbolTableRecord
100
AcDbLinetypeTableRecord
  2
EXLTYPE1
 70
     0
  3
点線
 72
    65
 73
     2
 40
2.0
 49
1.0
 74
     0
 49
-1.0
 74
     0
  0
LTYPE
  5
70
330
5
100
AcDbSymbolTableRecord
100
AcDbLinetypeTableRecord
  2
EXLTYPE2
 70
     0
  3
一点鎖線
 72
    65
 73
     4
 40
13.0
 49
10.0
 74
     0
 49
-1.0
 74
     0
 49
1.0
 74
     0
 49
-1.0
 74
     0
  0
LTYPE
  5
71
330
5
100
AcDbSymbolTableRecord
100
AcDbLinetypeTableRecord
  2
EXLTYPE3
 70
     0
  3
二点鎖線
 72
    65
 73
     6
 40
15.0
 49
10.0
 74
     0
 49
-1.0
 74
     0
 49
1.0
 74
     0
 49
-1.0
 74
     0
 49
1.0
 74
     0
 49
-1.0
 74
     0
  0
LTYPE
  5
72
330
5
100
AcDbSymbolTableRecord
100
AcDbLinetypeTableRecord
  2
EXLTYPE4
 70
     0
  3
破線
 72
    65
 73
     2
 40
3.0
 49
2.0
 74
     0
 49
-1.0
 74
     0
  0
LTYPE
  5
73
330
5
100
AcDbSymbolTableRecord
100
AcDbLinetypeTableRecord
  2
EXLTYPE5
 70
     0
  3
点線2
 72
    65
 73
     2
 40
1.0
 49
0.5
 74
     0
 49
-0.5
 74
     0
  0
LTYPE
  5
74
330
5
100
AcDbSymbolTableRecord
100
AcDbLinetypeTableRecord
  2
EXLTYPE6
 70
     0
  3
二点鎖線2
 72
    65
 73
     6
 40
7.5
 49
5.0
 74
     0
 49
-0.5
 74
     0
 49
0.5
 74
     0
 49
-0.5
 74
     0
 49
0.5
 74
     0
 49
-0.5
 74
     0
  0
LTYPE
  5
75
330
5
100
AcDbSymbolTableRecord
100
AcDbLinetypeTableRecord
  2
EXLTYPE7
 70
     0
  3
三点鎖線
 72
    65
 73
     8
 40
37.0
 49
30.0
 74
     0
 49
-1.0
 74
     0
 49
1.0
 74
     0
 49
-1.0
 74
     0
 49
1.0
 74
     0
 49
-1.0
 74
     0
 49
1.0
 74
     0
 49
-1.0
 74
     0
  0
LTYPE
  5
76
330
5
100
AcDbSymbolTableRecord
100
AcDbLinetypeTableRecord
  2
EXLTYPE8
 70
     0
  3
一点鎖線3
 72
    65
 73
     4
 40
33.0
 49
30.0
 74
     0
 49
-1.0
 74
     0
 49
1.0
 74
     0
 49
-1.0
 74
     0
  0
LTYPE
  5
77
330
5
100
AcDbSymbolTableRecord
100
AcDbLinetypeTableRecord
  2
EXLTYPE9
 70
     0
  3
二点鎖線3
 72
    65
 73
     6
 40
4.5
 49
2.0
 74
     0
 49
-0.5
 74
     0
 49
0.5
 74
     0
 49
-0.5
 74
     0
 49
0.5
 74
     0
 49
-0.5
 74
     0
  0
LTYPE
  5
78
330
5
100
AcDbSymbolTableRecord
100
AcDbLinetypeTableRecord
  2
EXLTYPE10
 70
     0
  3
四点鎖線
 72
    65
 73
    10
 40
39.0
 49
30.0
 74
     0
 49
-1.0
 74
     0
 49
1.0
 74
     0
 49
-1.0
 74
     0
 49
1.0
 74
     0
 49
-1.0
 74
     0
 49
1.0
 74
     0
 49
-1.0
 74
     0
 49
1.0
 74
     0
 49
-1.0
 74
     0
  0
ENDTAB
  0
TABLE
  2
LAYER
  5
2
330
0
100
AcDbSymbolTable
 70
     2
  0
LAYER
  5
10
330
2
100
AcDbSymbolTableRecord
100
AcDbLayerTableRecord
  2
0
 70
     0
 62
     7
  6
CONTINUOUS
  0
LAYER
  5
7B
330
2
100
AcDbSymbolTableRecord
100
AcDbLayerTableRecord
  2
LAY-1
 70
     0
 62
     7
  6
CONTINUOUS
  0
ENDTAB
  0
TABLE
  2
STYLE
  5
3
330
0
100
AcDbSymbolTable
 70
     4
  0
STYLE
  5
11
330
3
100
AcDbSymbolTableRecord
100
AcDbTextStyleTableRecord
  2
STANDARD
 70
     0
 40
0.0
 41
1.0
 50
0.0
 71
     0
 42
2.5
  3
monotxt
  4
extfont
  0
STYLE
  5
79
330
3
100
AcDbSymbolTableRecord
100
AcDbTextStyleTableRecord
  2
EXCADSTD
 70
     0
 40
0.0
 41
1.0
 50
0.0
 71
     0
 42
2.5
  3
monotxt
  4
extfont
  0
STYLE
  5
7A
330
3
100
AcDbSymbolTableRecord
100
AcDbTextStyleTableRecord
  2
EXCADVERT
 70
     4
 40
0.0
 41
1.0
 50
0.0
 71
     0
 42
2.5
  3
monotxt
  4
extfont
  0
STYLE
  5
720
330
3
100
AcDbSymbolTableRecord
100
AcDbTextStyleTableRecord
  2
EXCADTTF1
 70
     0
 40
0.0
 41
1.0
 50
0.0
 71
     0
 42
2.5
  3
msmincho.ttc
  4

1001
ACAD
1000
MS Mincho
1071
    32785
  0
ENDTAB
  0
TABLE
  2
VIEW
  5
6
330
0
100
AcDbSymbolTable
 70
     0
  0
ENDTAB
  0
TABLE
  2
UCS
  5
7
330
0
100
AcDbSymbolTable
 70
     0
  0
ENDTAB
  0
TABLE
  2
APPID
  5
9
330
0
100
AcDbSymbolTable
 70
     2
  0
APPID
  5
12
330
9
100
AcDbSymbolTableRecord
100
AcDbRegAppTableRecord
  2
ACAD
 70
     0
  0
APPID
  5
759
330
9
100
AcDbSymbolTableRecord
100
AcDbRegAppTableRecord
  2
ACAD_MLEADERVER
 70
     0
  0
ENDTAB
  0
TABLE
  2
DIMSTYLE
  5
A
330
0
100
AcDbSymbolTable
 70
     1
  0
DIMSTYLE
105
27
330
A
100
AcDbSymbolTableRecord
100
AcDbDimStyleTableRecord
  2
ISO-25
 70
     0
  3

  4

  5

  6

  7

 40
1.0
 41
2.5
 42
0.625
 43
3.75
 44
1.25
 45
0.0
 46
0.0
 47
0.0
 48
0.0
140
2.5
141
2.5
142
0.0
143
0.03937007874016
144
1.0
145
0.0
146
1.0
147
0.625
 71
     0
 72
     0
 73
     0
 74
     0
 75
     0
 76
     0
 77
     1
 78
     8
170
     0
171
     3
172
     1
173
     0
174
     0
175
     0
176
     0
177
     0
178
     0
270
     2
271
     2
272
     2
273
     2
274
     3
340
11
275
     0
280
     0
281
     0
282
     0
283
     0
284
     8
285
     0
286
     0
287
     5
288
     0
  0
ENDTAB
  0
TABLE
  2
BLOCK_RECORD
  5
1
330
0
100
AcDbSymbolTable
 70
    15
  0
BLOCK_RECORD
  5
1F
330
1
100
AcDbSymbolTableRecord
100
AcDbBlockTableRecord
  2
*MODEL_SPACE
  0
BLOCK_RECORD
  5
1B
330
1
100
AcDbSymbolTableRecord
100
AcDbBlockTableRecord
  2
*PAPER_SPACE
  0
BLOCK_RECORD
  5
7C
330
1
100
AcDbSymbolTableRecord
100
AcDbBlockTableRecord
  2
EX_NORM
  0
BLOCK_RECORD
  5
7F
330
1
100
AcDbSymbolTableRecord
100
AcDbBlockTableRecord
  2
EX_BNORM
  0
BLOCK_RECORD
  5
82
330
1
100
AcDbSymbolTableRecord
100
AcDbBlockTableRecord
  2
EX_BCIR
  0
BLOCK_RECORD
  5
85
330
1
100
AcDbSymbolTableRecord
100
AcDbBlockTableRecord
  2
EX_RCIVIL
  0
BLOCK_RECORD
  5
88
330
1
100
AcDbSymbolTableRecord
100
AcDbBlockTableRecord
  2
EX_SLANT
  0
BLOCK_RECORD
  5
8B
330
1
100
AcDbSymbolTableRecord
100
AcDbBlockTableRecord
  2
EX_NONE
  0
BLOCK_RECORD
  5
8E
330
1
100
AcDbSymbolTableRecord
100
AcDbBlockTableRecord
  2
EX_CIVIL
  0
BLOCK_RECORD
  5
91
330
1
100
AcDbSymbolTableRecord
100
AcDbBlockTableRecord
  2
EX_WCIR
  0
BLOCK_RECORD
  5
94
330
1
100
AcDbSymbolTableRecord
100
AcDbBlockTableRecord
  2
EX_WCIR2
  0
BLOCK_RECORD
  5
97
330
1
100
AcDbSymbolTableRecord
100
AcDbBlockTableRecord
  2
EX_WNORM
  0
BLOCK_RECORD
  5
9A
330
1
100
AcDbSymbolTableRecord
100
AcDbBlockTableRecord
  2
EX_NNORM
  0
BLOCK_RECORD
  5
9D
330
1
100
AcDbSymbolTableRecord
100
AcDbBlockTableRecord
  2
EX_BBOX
  0
BLOCK_RECORD
  5
A0
330
1
100
AcDbSymbolTableRecord
100
AcDbBlockTableRecord
  2
EX_WBOX
  0
BLOCK_RECORD
  5
A3
330
1
100
AcDbSymbolTableRecord
100
AcDbBlockTableRecord
  2
EX_INTEGRAL
  0
ENDTAB
  0
ENDSEC
  0
SECTION
  2
BLOCKS
  0
BLOCK
  5
20
330
1F
100
AcDbEntity
  8
0
100
AcDbBlockBegin
  2
*MODEL_SPACE
 70
     0
 10
0.0
 20
0.0
 30
0.0
  3
*MODEL_SPACE
  1

  0
ENDBLK
  5
21
330
1F
100
AcDbEntity
  8
0
100
AcDbBlockEnd
  0
BLOCK
  5
1C
330
1B
100
AcDbEntity
 67
     1
  8
0
100
AcDbBlockBegin
  2
*PAPER_SPACE
 70
     0
 10
0.0
 20
0.0
 30
0.0
  3
*PAPER_SPACE
  1

  0
ENDBLK
  5
1D
330
1B
100
AcDbEntity
 67
     1
  8
0
100
AcDbBlockEnd
  0
BLOCK
  5
7D
330
7C
100
AcDbEntity
  8
0
100
AcDbBlockBegin
  2
EX_NORM
 70
     0
 10
0.0
 20
0.0
 30
0.0
  3
EX_NORM
  1

  0
LINE
  5
A6
330
7C
100
AcDbEntity
  8
0
  6
CONTINUOUS
 62
     0
100
AcDbLine
 10
0.0
 20
0.0
 30
0.0
 11
-1.0
 21
0.0
 31
0.0
  0
LINE
  5
A7
330
7C
100
AcDbEntity
  8
0
  6
CONTINUOUS
 62
     0
100
AcDbLine
 10
0.0
 20
0.0
 30
0.0
 11
-1.0
 21
0.166666667
 31
0.0
  0
LINE
  5
A8
330
7C
100
AcDbEntity
  8
0
  6
CONTINUOUS
 62
     0
100
AcDbLine
 10
0.0
 20
0.0
 30
0.0
 11
-1.0
 21
-0.166666667
 31
0.0
  0
ENDBLK
  5
7E
330
7C
100
AcDbEntity
  8
0
100
AcDbBlockEnd
  0
BLOCK
  5
80
330
7F
100
AcDbEntity
  8
0
100
AcDbBlockBegin
  2
EX_BNORM
 70
     0
 10
0.0
 20
0.0
 30
0.0
  3
EX_BNORM
  1

  0
LINE
  5
A9
330
7F
100
AcDbEntity
  8
0
  6
CONTINUOUS
 62
     0
100
AcDbLine
 10
0.0
 20
0.0
 30
0.0
 11
-1.0
 21
0.0
 31
0.0
  0
LINE
  5
AA
330
7F
100
AcDbEntity
  8
0
  6
CONTINUOUS
 62
     0
100
AcDbLine
 10
0.0
 20
0.0
 30
0.0
 11
-1.0
 21
0.166666667
 31
0.0
  0
LINE
  5
AB
330
7F
100
AcDbEntity
  8
0
  6
CONTINUOUS
 62
     0
100
AcDbLine
 10
0.0
 20
0.0
 30
0.0
 11
-1.0
 21
-0.166666667
 31
0.0
  0
LINE
  5
AC
330
7F
100
AcDbEntity
  8
0
  6
CONTINUOUS
 62
     0
100
AcDbLine
 10
0.0
 20
0.0
 30
0.0
 11
-1.0
 21
0.083333333
 31
0.0
  0
LINE
  5
AD
330
7F
100
AcDbEntity
  8
0
  6
CONTINUOUS
 62
     0
100
AcDbLine
 10
0.0
 20
0.0
 30
0.0
 11
-1.0
 21
-0.083333333
 31
0.0
  0
LINE
  5
AE
330
7F
100
AcDbEntity
  8
0
  6
CONTINUOUS
 62
     0
100
AcDbLine
 10
-1.0
 20
0.166666667
 30
0.0
 11
-1.0
 21
-0.166666667
 31
0.0
  0
ENDBLK
  5
81
330
7F
100
AcDbEntity
  8
0
100
AcDbBlockEnd
  0
BLOCK
  5
83
330
82
100
AcDbEntity
  8
0
100
AcDbBlockBegin
  2
EX_BCIR
 70
     0
 10
0.0
 20
0.0
 30
0.0
  3
EX_BCIR
  1

  0
LINE
  5
AF
330
82
100
AcDbEntity
  8
0
  6
CONTINUOUS
 62
     0
100
AcDbLine
 10
0.0
 20
0.0
 30
0.0
 11
-1.0
 21
0.0
 31
0.0
  0
CIRCLE
  5
B0
330
82
100
AcDbEntity
  8
0
  6
CONTINUOUS
 62
     0
100
AcDbCircle
 10
0.0
 20
0.0
 30
0.0
 40
0.5
  0
CIRCLE
  5
B1
330
82
100
AcDbEntity
  8
0
  6
CONTINUOUS
 62
     0
100
AcDbCircle
 10
0.0
 20
0.0
 30
0.0
 40
0.25
  0
ENDBLK
  5
84
330
82
100
AcDbEntity
  8
0
100
AcDbBlockEnd
  0
BLOCK
  5
86
330
85
100
AcDbEntity
  8
0
100
AcDbBlockBegin
  2
EX_RCIVIL
 70
     0
 10
0.0
 20
0.0
 30
0.0
  3
EX_RCIVIL
  1

  0
LINE
  5
B2
330
85
100
AcDbEntity
  8
0
  6
CONTINUOUS
 62
     0
100
AcDbLine
 10
0.0
 20
0.0
 30
0.0
 11
-1.0
 21
0.0
 31
0.0
  0
LINE
  5
B3
330
85
100
AcDbEntity
  8
0
  6
CONTINUOUS
 62
     0
100
AcDbLine
 10
-1.0
 20
-0.25
 30
0.0
 11
0.0
 21
-0.25
 31
0.0
  0
LINE
  5
B4
330
85
100
AcDbEntity
  8
0
  6
CONTINUOUS
 62
     0
100
AcDbLine
 10
-1.0
 20
-0.125
 30
0.0
 11
0.0
 21
-0.125
 31
0.0
  0
ENDBLK
  5
87
330
85
100
AcDbEntity
  8
0
100
AcDbBlockEnd
  0
BLOCK
  5
89
330
88
100
AcDbEntity
  8
0
100
AcDbBlockBegin
  2
EX_SLANT
 70
     0
 10
0.0
 20
0.0
 30
0.0
  3
EX_SLANT
  1

  0
LINE
  5
B5
330
88
100
AcDbEntity
  8
0
  6
CONTINUOUS
 62
     0
100
AcDbLine
 10
0.0
 20
0.0
 30
0.0
 11
-1.0
 21
0.0
 31
0.0
  0
LINE
  5
B6
330
88
100
AcDbEntity
  8
0
  6
CONTINUOUS
 62
     0
100
AcDbLine
 10
0.707106781
 20
0.707106781
 30
0.0
 11
-0.707106781
 21
-0.707106781
 31
0.0
  0
ENDBLK
  5
8A
330
88
100
AcDbEntity
  8
0
100
AcDbBlockEnd
  0
BLOCK
  5
8C
330
8B
100
AcDbEntity
  8
0
100
AcDbBlockBegin
  2
EX_NONE
 70
     0
 10
0.0
 20
0.0
 30
0.0
  3
EX_NONE
  1

  0
LINE
  5
B7
330
8B
100
AcDbEntity
  8
0
  6
CONTINUOUS
 62
     0
100
AcDbLine
 10
0.0
 20
0.0
 30
0.0
 11
-1.0
 21
0.0
 31
0.0
  0
ENDBLK
  5
8D
330
8B
100
AcDbEntity
  8
0
100
AcDbBlockEnd
  0
BLOCK
  5
8F
330
8E
100
AcDbEntity
  8
0
100
AcDbBlockBegin
  2
EX_CIVIL
 70
     0
 10
0.0
 20
0.0
 30
0.0
  3
EX_CIVIL
  1

  0
LINE
  5
B8
330
8E
100
AcDbEntity
  8
0
  6
CONTINUOUS
 62
     0
100
AcDbLine
 10
0.0
 20
0.0
 30
0.0
 11
-1.0
 21
0.0
 31
0.0
  0
LINE
  5
B9
330
8E
100
AcDbEntity
  8
0
  6
CONTINUOUS
 62
     0
100
AcDbLine
 10
-1.0
 20
0.25
 30
0.0
 11
0.0
 21
0.25
 31
0.0
  0
LINE
  5
BA
330
8E
100
AcDbEntity
  8
0
  6
CONTINUOUS
 62
     0
100
AcDbLine
 10
-1.0
 20
0.125
 30
0.0
 11
0.0
 21
0.125
 31
0.0
  0
ENDBLK
  5
90
330
8E
100
AcDbEntity
  8
0
100
AcDbBlockEnd
  0
BLOCK
  5
92
330
91
100
AcDbEntity
  8
0
100
AcDbBlockBegin
  2
EX_WCIR
 70
     0
 10
0.0
 20
0.0
 30
0.0
  3
EX_WCIR
  1

  0
LINE
  5
BB
330
91
100
AcDbEntity
  8
0
  6
CONTINUOUS
 62
     0
100
AcDbLine
 10
0.0
 20
0.0
 30
0.0
 11
-1.0
 21
0.0
 31
0.0
  0
CIRCLE
  5
BC
330
91
100
AcDbEntity
  8
0
  6
CONTINUOUS
 62
     0
100
AcDbCircle
 10
0.0
 20
0.0
 30
0.0
 40
0.5
  0
ENDBLK
  5
93
330
91
100
AcDbEntity
  8
0
100
AcDbBlockEnd
  0
BLOCK
  5
95
330
94
100
AcDbEntity
  8
0
100
AcDbBlockBegin
  2
EX_WCIR2
 70
     0
 10
0.0
 20
0.0
 30
0.0
  3
EX_WCIR2
  1

  0
LINE
  5
BD
330
94
100
AcDbEntity
  8
0
  6
CONTINUOUS
 62
     0
100
AcDbLine
 10
-0.5
 20
0.0
 30
0.0
 11
-1.0
 21
0.0
 31
0.0
  0
CIRCLE
  5
BE
330
94
100
AcDbEntity
  8
0
  6
CONTINUOUS
 62
     0
100
AcDbCircle
 10
0.0
 20
0.0
 30
0.0
 40
0.5
  0
ENDBLK
  5
96
330
94
100
AcDbEntity
  8
0
100
AcDbBlockEnd
  0
BLOCK
  5
98
330
97
100
AcDbEntity
  8
0
100
AcDbBlockBegin
  2
EX_WNORM
 70
     0
 10
0.0
 20
0.0
 30
0.0
  3
EX_WNORM
  1

  0
LINE
  5
BF
330
97
100
AcDbEntity
  8
0
  6
CONTINUOUS
 62
     0
100
AcDbLine
 10
-1.0
 20
0.0
 30
0.0
 11
-1.0
 21
0.0
 31
0.0
  0
LINE
  5
C0
330
97
100
AcDbEntity
  8
0
  6
CONTINUOUS
 62
     0
100
AcDbLine
 10
0.0
 20
0.0
 30
0.0
 11
-1.0
 21
0.166666667
 31
0.0
  0
LINE
  5
C1
330
97
100
AcDbEntity
  8
0
  6
CONTINUOUS
 62
     0
100
AcDbLine
 10
0.0
 20
0.0
 30
0.0
 11
-1.0
 21
-0.166666667
 31
0.0
  0
LINE
  5
C2
330
97
100
AcDbEntity
  8
0
  6
CONTINUOUS
 62
     0
100
AcDbLine
 10
-1.0
 20
0.166666667
 30
0.0
 11
-1.0
 21
-0.166666667
 31
0.0
  0
ENDBLK
  5
99
330
97
100
AcDbEntity
  8
0
100
AcDbBlockEnd
  0
BLOCK
  5
9B
330
9A
100
AcDbEntity
  8
0
100
AcDbBlockBegin
  2
EX_NNORM
 70
     0
 10
0.0
 20
0.0
 30
0.0
  3
EX_NNORM
  1

  0
LINE
  5
C3
330
9A
100
AcDbEntity
  8
0
  6
CONTINUOUS
 62
     0
100
AcDbLine
 10
0.0
 20
0.0
 30
0.0
 11
-1.0
 21
0.0
 31
0.0
  0
LINE
  5
C4
330
9A
100
AcDbEntity
  8
0
  6
CONTINUOUS
 62
     0
100
AcDbLine
 10
0.0
 20
0.0
 30
0.0
 11
-1.0
 21
0.166666667
 31
0.0
  0
LINE
  5
C5
330
9A
100
AcDbEntity
  8
0
  6
CONTINUOUS
 62
     0
100
AcDbLine
 10
0.0
 20
0.0
 30
0.0
 11
-1.0
 21
-0.166666667
 31
0.0
  0
LINE
  5
C6
330
9A
100
AcDbEntity
  8
0
  6
CONTINUOUS
 62
     0
100
AcDbLine
 10
-1.0
 20
0.166666667
 30
0.0
 11
-1.0
 21
-0.166666667
 31
0.0
  0
ENDBLK
  5
9C
330
9A
100
AcDbEntity
  8
0
100
AcDbBlockEnd
  0
BLOCK
  5
9E
330
9D
100
AcDbEntity
  8
0
100
AcDbBlockBegin
  2
EX_BBOX
 70
     0
 10
0.0
 20
0.0
 30
0.0
  3
EX_BBOX
  1

  0
LINE
  5
C7
330
9D
100
AcDbEntity
  8
0
  6
CONTINUOUS
 62
     0
100
AcDbLine
 10
0.0
 20
0.0
 30
0.0
 11
-1.0
 21
0.0
 31
0.0
  0
LINE
  5
C8
330
9D
100
AcDbEntity
  8
0
  6
CONTINUOUS
 62
     0
100
AcDbLine
 10
-0.5
 20
0.5
 30
0.0
 11
0.5
 21
0.5
 31
0.0
  0
LINE
  5
C9
330
9D
100
AcDbEntity
  8
0
  6
CONTINUOUS
 62
     0
100
AcDbLine
 10
0.5
 20
0.5
 30
0.0
 11
0.5
 21
-0.5
 31
0.0
  0
LINE
  5
CA
330
9D
100
AcDbEntity
  8
0
  6
CONTINUOUS
 62
     0
100
AcDbLine
 10
0.5
 20
-0.5
 30
0.0
 11
-0.5
 21
-0.5
 31
0.0
  0
LINE
  5
CB
330
9D
100
AcDbEntity
  8
0
  6
CONTINUOUS
 62
     0
100
AcDbLine
 10
-0.5
 20
-0.5
 30
0.0
 11
-0.5
 21
0.5
 31
0.0
  0
LINE
  5
CC
330
9D
100
AcDbEntity
  8
0
  6
CONTINUOUS
 62
     0
100
AcDbLine
 10
-0.25
 20
0.25
 30
0.0
 11
0.25
 21
0.25
 31
0.0
  0
LINE
  5
CD
330
9D
100
AcDbEntity
  8
0
  6
CONTINUOUS
 62
     0
100
AcDbLine
 10
0.25
 20
0.25
 30
0.0
 11
0.25
 21
-0.25
 31
0.0
  0
LINE
  5
CE
330
9D
100
AcDbEntity
  8
0
  6
CONTINUOUS
 62
     0
100
AcDbLine
 10
0.25
 20
-0.25
 30
0.0
 11
-0.25
 21
-0.25
 31
0.0
  0
LINE
  5
CF
330
9D
100
AcDbEntity
  8
0
  6
CONTINUOUS
 62
     0
100
AcDbLine
 10
-0.25
 20
-0.25
 30
0.0
 11
-0.25
 21
0.25
 31
0.0
  0
ENDBLK
  5
9F
330
9D
100
AcDbEntity
  8
0
100
AcDbBlockEnd
  0
BLOCK
  5
A1
330
A0
100
AcDbEntity
  8
0
100
AcDbBlockBegin
  2
EX_WBOX
 70
     0
 10
0.0
 20
0.0
 30
0.0
  3
EX_WBOX
  1

  0
LINE
  5
D0
330
A0
100
AcDbEntity
  8
0
  6
CONTINUOUS
 62
     0
100
AcDbLine
 10
-0.5
 20
0.0
 30
0.0
 11
-1.0
 21
0.0
 31
0.0
  0
LINE
  5
D1
330
A0
100
AcDbEntity
  8
0
  6
CONTINUOUS
 62
     0
100
AcDbLine
 10
-0.5
 20
0.5
 30
0.0
 11
0.5
 21
0.5
 31
0.0
  0
LINE
  5
D2
330
A0
100
AcDbEntity
  8
0
  6
CONTINUOUS
 62
     0
100
AcDbLine
 10
0.5
 20
0.5
 30
0.0
 11
0.5
 21
-0.5
 31
0.0
  0
LINE
  5
D3
330
A0
100
AcDbEntity
  8
0
  6
CONTINUOUS
 62
     0
100
AcDbLine
 10
0.5
 20
-0.5
 30
0.0
 11
-0.5
 21
-0.5
 31
0.0
  0
LINE
  5
D4
330
A0
100
AcDbEntity
  8
0
  6
CONTINUOUS
 62
     0
100
AcDbLine
 10
-0.5
 20
-0.5
 30
0.0
 11
-0.5
 21
0.5
 31
0.0
  0
ENDBLK
  5
A2
330
A0
100
AcDbEntity
  8
0
100
AcDbBlockEnd
  0
BLOCK
  5
A4
330
A3
100
AcDbEntity
  8
0
100
AcDbBlockBegin
  2
EX_INTEGRAL
 70
     0
 10
0.0
 20
0.0
 30
0.0
  3
EX_INTEGRAL
  1

  0
LINE
  5
D5
330
A3
100
AcDbEntity
  8
0
  6
CONTINUOUS
 62
     0
100
AcDbLine
 10
0.0
 20
0.0
 30
0.0
 11
-1.0
 21
0.0
 31
0.0
  0
ARC
  5
D6
330
A3
100
AcDbEntity
  8
0
  6
CONTINUOUS
 62
     0
100
AcDbCircle
 10
0.542115
 20
0.164992
 30
0.0
 40
0.56667
100
AcDbArc
 50
73.07249033629006
 51
196.9275130221199
  0
ARC
  5
D7
330
A3
100
AcDbEntity
  8
0
  6
CONTINUOUS
 62
     0
100
AcDbCircle
 10
-0.542115
 20
-0.164992
 30
0.0
 40
0.56667
100
AcDbArc
 50
253.0724869220464
 51
16.9275130559125
  0
ENDBLK
  5
A5
330
A3
100
AcDbEntity
  8
0
100
AcDbBlockEnd
  0
ENDSEC
  0
SECTION
  2
ENTITIES
  0
LINE
  5
D8
330
1F
100
AcDbEntity
  8
LAY-1
  6
CONTINUOUS
 62
     3
100
AcDbLine
 10
132.0
 20
275.0
 30
0.0
 11
134.0
 21
275.0
 31
0.0
  0
LINE
  5
D9
330
1F
100
AcDbEntity
  8
LAY-1
  6
CONTINUOUS
 62
     3
100
AcDbLine
 10
132.0
 20
275.0
 30
0.0
 11
132.0
 21
217.0
 31
0.0
  0
LINE
  5
DA
330
1F
100
AcDbEntity
  8
LAY-1
  6
CONTINUOUS
 62
     3
100
AcDbLine
 10
148.0
 20
304.5
 30
0.0
 11
134.0
 21
304.5
 31
0.0
  0
ARC
  5
DB
330
1F
100
AcDbEntity
  8
LAY-1
  6
CONTINUOUS
 62
     3
100
AcDbCircle
 10
148.0
 20
302.5
 30
0.0
 40
2.0
100
AcDbArc
 50
0.0
 51
90.00000000000001
  0
LINE
  5
DC
330
1F
100
AcDbEntity
  8
LAY-1
  6
EXLTYPE2
 62
     1
100
AcDbLine
 10
156.0
 20
287.0
 30
0.0
 11
126.0
 21
287.0
 31
0.0
  0
LINE
  5
DD
330
1F
100
AcDbEntity
  8
LAY-1
  6
CONTINUOUS
 62
     3
100
AcDbLine
 10
157.5780854900399
 20
257.2875063215936
 30
0.0
 11
175.0
 21
254.5
 31
0.0
  0
ARC
  5
DE
330
1F
100
AcDbEntity
  8
LAY-1
  6
CONTINUOUS
 62
     3
100
AcDbCircle
 10
159.0
 20
266.174472008844
 30
0.0
 40
9.0
100
AcDbArc
 50
180.0
 51
260.9097230791776
  0
LINE
  5
DF
330
1F
100
AcDbEntity
  8
LAY-1
  6
CONTINUOUS
 62
     3
100
AcDbLine
 10
402.0
 20
275.0
 30
0.0
 11
400.0
 21
275.0
 31
0.0
  0
LINE
  5
E0
330
1F
100
AcDbEntity
  8
LAY-1
  6
CONTINUOUS
 62
     3
100
AcDbLine
 10
402.0
 20
275.0
 30
0.0
 11
402.0
 21
217.0
 31
0.0
  0
LINE
  5
E1
330
1F
100
AcDbEntity
  8
LAY-1
  6
CONTINUOUS
 62
     3
100
AcDbLine
 10
386.0
 20
304.5
 30
0.0
 11
400.0
 21
304.5
 31
0.0
  0
ARC
  5
E2
330
1F
100
AcDbEntity
  8
LAY-1
  6
CONTINUOUS
 62
     3
100
AcDbCircle
 10
386.0
 20
302.5
 30
0.0
 40
2.0
100
AcDbArc
 50
90.00000000000001
 51
180.0
  0
ARC
  5
E3
330
1F
100
AcDbEntity
  8
LAY-1
  6
CONTINUOUS
 62
     3
100
AcDbCircle
 10
375.0
 20
266.174472008844
 30
0.0
 40
9.0
100
AcDbArc
 50
279.0902769208224
 51
0.0
  0
LINE
  5
E4
330
1F
100
AcDbEntity
  8
LAY-1
  6
CONTINUOUS
 62
     3
100
AcDbLine
 10
132.0
 20
159.0
 30
0.0
 11
134.0
 21
159.0
 31
0.0
  0
LINE
  5
E5
330
1F
100
AcDbEntity
  8
LAY-1
  6
CONTINUOUS
 62
     3
100
AcDbLine
 10
132.0
 20
159.0
 30
0.0
 11
132.0
 21
217.0
 31
0.0
  0
LINE
  5
E6
330
1F
100
AcDbEntity
  8
LAY-1
  6
CONTINUOUS
 62
     3
100
AcDbLine
 10
148.0
 20
129.5
 30
0.0
 11
134.0
 21
129.5
 31
0.0
  0
ARC
  5
E7
330
1F
100
AcDbEntity
  8
LAY-1
  6
CONTINUOUS
 62
     3
100
AcDbCircle
 10
148.0
 20
131.5
 30
0.0
 40
2.0
100
AcDbArc
 50
270.0
 51
0.0
  0
LINE
  5
E8
330
1F
100
AcDbEntity
  8
LAY-1
  6
EXLTYPE2
 62
     1
100
AcDbLine
 10
156.0
 20
147.0
 30
0.0
 11
126.0
 21
147.0
 31
0.0
  0
ARC
  5
E9
330
1F
100
AcDbEntity
  8
LAY-1
  6
CONTINUOUS
 62
     3
100
AcDbCircle
 10
159.0
 20
167.825527991156
 30
0.0
 40
9.0
100
AcDbArc
 50
99.09027692082233
 51
180.0
  0
LINE
  5
EA
330
1F
100
AcDbEntity
  8
LAY-1
  6
CONTINUOUS
 62
     3
100
AcDbLine
 10
402.0
 20
159.0000000000001
 30
0.0
 11
400.0
 21
159.0000000000001
 31
0.0
  0
LINE
  5
EB
330
1F
100
AcDbEntity
  8
LAY-1
  6
CONTINUOUS
 62
     3
100
AcDbLine
 10
402.0
 20
159.0000000000001
 30
0.0
 11
402.0
 21
217.0
 31
0.0
  0
LINE
  5
EC
330
1F
100
AcDbEntity
  8
LAY-1
  6
CONTINUOUS
 62
     3
100
AcDbLine
 10
386.0
 20
129.5000000000001
 30
0.0
 11
400.0
 21
129.5000000000001
 31
0.0
  0
ARC
  5
ED
330
1F
100
AcDbEntity
  8
LAY-1
  6
CONTINUOUS
 62
     3
100
AcDbCircle
 10
386.0
 20
131.5000000000001
 30
0.0
 40
2.0
100
AcDbArc
 50
180.0
 51
270.0
  0
LINE
  5
EE
330
1F
100
AcDbEntity
  8
LAY-1
  6
EXLTYPE2
 62
     1
100
AcDbLine
 10
378.0
 20
147.0000000000001
 30
0.0
 11
408.0
 21
147.0000000000001
 31
0.0
  0
LINE
  5
EF
330
1F
100
AcDbEntity
  8
LAY-1
  6
CONTINUOUS
 62
     3
100
AcDbLine
 10
376.4219145099601
 20
176.7124936784064
 30
0.0
 11
359.0
 21
179.5
 31
0.0
  0
ARC
  5
F0
330
1F
100
AcDbEntity
  8
LAY-1
  6
CONTINUOUS
 62
     3
100
AcDbCircle
 10
375.0
 20
167.8255279911561
 30
0.0
 40
9.0
100
AcDbArc
 50
0.0000000000001719
 51
80.90972307917768
  0
LINE
  5
F1
330
1F
100
AcDbEntity
  8
LAY-1
  6
EXLTYPE2
 62
     1
100
AcDbLine
 10
378.0
 20
287.0
 30
0.0
 11
408.0
 21
287.0
 31
0.0
  0
LINE
  5
F2
330
1F
100
AcDbEntity
  8
LAY-1
  6
CONTINUOUS
 62
     3
100
AcDbLine
 10
376.4219145099594
 20
257.2875063215935
 30
0.0
 11
359.0
 21
254.5
 31
0.0
  0
LINE
  5
F3
330
1F
100
AcDbEntity
  8
LAY-1
  6
CONTINUOUS
 62
     3
100
AcDbLine
 10
291.2051768689374
 20
116.6481779514178
 30
0.0
 11
246.3915769464772
 21
79.0451027847553
 31
0.0
  0
LINE
  5
F4
330
1F
100
AcDbEntity
  8
LAY-1
  6
CONTINUOUS
 62
     3
100
AcDbLine
 10
291.2051768689374
 20
116.6481779514178
 30
0.0
 11
336.0187767913975
 21
154.2512531180803
 31
0.0
  0
LINE
  5
F5
330
1F
100
AcDbEntity
  8
LAY-1
  6
CONTINUOUS
 62
     3
100
AcDbLine
 10
157.5780854900399
 20
176.7124936784064
 30
0.0
 11
169.597550207112
 21
178.6356080331379
 31
0.0
  0
ARC
  5
F6
330
1F
100
AcDbEntity
  8
LAY-1
  6
CONTINUOUS
 62
     3
100
AcDbCircle
 10
172.5993697281386
 20
159.8742360267206
 30
0.0
 40
19.0
100
AcDbArc
 50
24.34449784276093
 51
99.0902769208219
  0
LINE
  5
F7
330
1F
100
AcDbEntity
  8
LAY-1
  6
CONTINUOUS
 62
     3
100
AcDbLine
 10
236.769716134413
 20
90.55251226609721
 30
0.0
 11
246.4115302797111
 21
79.06184561931252
 31
0.0
  0
ARC
  5
F8
330
1F
100
AcDbEntity
  8
LAY-1
  6
CONTINUOUS
 62
     3
100
AcDbCircle
 10
238.3018050206509
 20
91.83808748547028
 30
0.0
 40
2.0
100
AcDbArc
 50
130.0000000000001
 51
219.9999999999999
  0
ARC
  5
F9
330
1F
100
AcDbEntity
  8
LAY-1
  6
CONTINUOUS
 62
     3
100
AcDbCircle
 10
349.349550457061
 20
239.8453158762091
 30
0.0
 40
175.0
100
AcDbArc
 50
204.3444978427609
 51
231.9972749340412
  0
ARC
  5
FA
330
1F
100
AcDbEntity
  8
LAY-1
  6
CONTINUOUS
 62
     3
100
AcDbCircle
 10
239.7551367335388
 20
99.58461403639419
 30
0.0
 40
3.0
100
AcDbArc
 50
309.9999999999999
 51
51.9972749340413
  0
ARC
  5
FB
330
1F
100
AcDbEntity
  8
LAY-1
  6
CONTINUOUS
 62
     3
100
AcDbCircle
 10
324.8648270930926
 20
164.4730873800525
 30
0.0
 40
2.0
100
AcDbArc
 50
40.00000000000013
 51
130.0000000000001
  0
ARC
  5
FC
330
1F
100
AcDbEntity
  8
LAY-1
  6
CONTINUOUS
 62
     3
100
AcDbCircle
 10
316.9437126168677
 20
164.3535195912002
 30
0.0
 40
3.0
100
AcDbArc
 50
208.0027250659599
 51
310.0000000000007
  0
LINE
  5
FD
330
1F
100
AcDbEntity
  8
LAY-1
  6
CONTINUOUS
 62
     3
100
AcDbLine
 10
318.509720542485
 20
179.5
 30
0.0
 11
358.9999999999999
 21
179.5
 31
0.0
  0
ARC
  5
FE
330
1F
100
AcDbEntity
  8
LAY-1
  6
CONTINUOUS
 62
     3
100
AcDbCircle
 10
318.509720542485
 20
173.5
 30
0.0
 40
6.0
100
AcDbArc
 50
90.00000000000001
 51
130.0000000000007
  0
ARC
  5
FF
330
1F
100
AcDbEntity
  8
LAY-1
  6
CONTINUOUS
 62
     3
100
AcDbCircle
 10
316.3147244911968
 20
171.6581796229285
 30
0.0
 40
6.0
100
AcDbArc
 50
130.0000000000008
 51
210.1382904867985
  0
LINE
  5
100
330
1F
100
AcDbEntity
  8
LAY-1
  6
CONTINUOUS
 62
     3
100
AcDbLine
 10
326.3969159793282
 20
165.7586625994284
 30
0.0
 11
336.2301015993175
 21
154.0399283101603
 31
0.0
  0
LINE
  5
101
330
1F
100
AcDbEntity
  8
LAY-1
  6
CONTINUOUS
 62
     3
100
AcDbLine
 10
312.4579988330779
 20
176.2544462816426
 30
0.0
 11
314.6529948843663
 21
178.0962666587143
 31
0.0
  0
LINE
  5
102
330
1F
100
AcDbEntity
  8
LAY-1
  6
CONTINUOUS
 62
     3
100
AcDbLine
 10
195.48258207382
 20
254.5
 30
0.0
 11
175.0000000000001
 21
254.5
 31
0.0
  0
ARC
  5
103
330
1F
100
AcDbEntity
  8
LAY-1
  6
CONTINUOUS
 62
     3
100
AcDbCircle
 10
306.7274288312589
 20
184.5
 30
0.0
 40
70.0
100
AcDbArc
 50
90.00000000000001
 51
125.1633186676271
  0
ARC
  5
104
330
1F
100
AcDbEntity
  8
LAY-1
  6
CONTINUOUS
 62
     3
100
AcDbCircle
 10
195.4825820738242
 20
196.5
 30
0.0
 40
57.99999999999999
100
AcDbArc
 50
52.43190540482165
 51
90.00000000000001
  0
ARC
  5
105
330
1F
100
AcDbEntity
  8
LAY-1
  6
CONTINUOUS
 62
     3
100
AcDbCircle
 10
249.1365234592802
 20
266.2513768595721
 30
0.0
 40
30.0
100
AcDbArc
 50
232.4319054048215
 51
305.1633186676272
  0
LINE
  5
106
330
1F
100
AcDbEntity
  8
LAY-1
  6
CONTINUOUS
 62
     3
100
AcDbLine
 10
306.7274288312589
 20
254.5
 30
0.0
 11
359.0
 21
254.5
 31
0.0
  0
LINE
  5
107
330
1F
100
AcDbEntity
  8
LAY-1
  6
CONTINUOUS
 62
     3
100
AcDbLine
 10
400.0
 20
129.5
 30
0.0
 11
400.0
 21
304.5
 31
0.0
  0
LINE
  5
108
330
1F
100
AcDbEntity
  8
LAY-1
  6
CONTINUOUS
 62
     3
100
AcDbLine
 10
134.0
 20
129.5
 30
0.0
 11
134.0
 21
304.5
 31
0.0
  0
LINE
  5
109
330
1F
100
AcDbEntity
  8
LAY-1
  6
CONTINUOUS
 62
     3
100
AcDbLine
 10
384.0
 20
131.5
 30
0.0
 11
384.0
 21
302.5
 31
0.0
  0
LINE
  5
10A
330
1F
100
AcDbEntity
  8
LAY-1
  6
CONTINUOUS
 62
     3
100
AcDbLine
 10
150.0
 20
129.5
 30
0.0
 11
150.0
 21
302.5
 31
0.0
  0
LINE
  5
10B
330
1F
100
AcDbEntity
  8
LAY-1
  6
CONTINUOUS
 62
     3
100
AcDbLine
 10
323.5792518737211
 20
166.0051762662886
 30
0.0
 11
237.0162298012779
 21
93.37017637170823
 31
0.0
  0
LINE
  5
10C
330
1F
100
AcDbEntity
  8
LAY-1
  6
EXLTYPE2
 62
     1
100
AcDbLine
 10
125.0
 20
217.0
 30
0.0
 11
409.5
 21
217.0000000000001
 31
0.0
  0
LINE
  5
10D
330
1F
100
AcDbEntity
  8
LAY-1
  6
CONTINUOUS
 62
     3
100
AcDbLine
 10
281.79726351676
 20
78.07693002815218
 30
0.0
 11
306.3106856965673
 21
98.64613353812143
 31
0.0
  0
LINE
  5
10E
330
1F
100
AcDbEntity
  8
LAY-1
  6
CONTINUOUS
 62
     3
100
AcDbLine
 10
247.9985459706897
 20
77.12999167695742
 30
0.0
 11
258.2831477256744
 21
64.87328058705377
 31
0.0
  0
ARC
  5
10F
330
1F
100
AcDbEntity
  8
LAY-1
  6
CONTINUOUS
 62
     3
100
AcDbCircle
 10
259.8152366119123
 20
66.15885580642686
 30
0.0
 40
2.0
100
AcDbArc
 50
220.0
 51
310.0
  0
LINE
  5
110
330
1F
100
AcDbEntity
  8
LAY-1
  6
CONTINUOUS
 62
     3
100
AcDbLine
 10
281.1544759070734
 20
78.84297447127115
 30
0.0
 11
281.79726351676
 21
78.07693002815218
 31
0.0
  0
ARC
  5
111
330
1F
100
AcDbEntity
  8
LAY-1
  6
CONTINUOUS
 62
     3
100
AcDbCircle
 10
279.6223870208355
 20
77.55739925189806
 30
0.0
 40
2.0
100
AcDbArc
 50
40.00000000000001
 51
130.0000000000001
  0
LINE
  5
112
330
1F
100
AcDbEntity
  8
LAY-1
  6
CONTINUOUS
 62
     3
100
AcDbLine
 10
337.6257458156101
 20
152.3361420102824
 30
0.0
 11
347.9103475705948
 21
140.0794309203788
 31
0.0
  0
ARC
  5
113
330
1F
100
AcDbEntity
  8
LAY-1
  6
CONTINUOUS
 62
     3
100
AcDbCircle
 10
346.3782586843568
 20
138.7938557010057
 30
0.0
 40
2.0
100
AcDbArc
 50
310.0
 51
39.99999999999921
  0
LINE
  5
114
330
1F
100
AcDbEntity
  8
LAY-1
  6
CONTINUOUS
 62
     3
100
AcDbLine
 10
305.6678980868808
 20
99.4121779812404
 30
0.0
 11
306.3106856965673
 21
98.64613353812143
 31
0.0
  0
ARC
  5
115
330
1F
100
AcDbEntity
  8
LAY-1
  6
CONTINUOUS
 62
     3
100
AcDbCircle
 10
307.1999869731187
 20
100.6977532006135
 30
0.0
 40
2.0
100
AcDbArc
 50
130.0000000000001
 51
220.0
  0
LINE
  5
116
330
1F
100
AcDbEntity
  8
LAY-1
  6
CONTINUOUS
 62
     3
100
AcDbLine
 10
303.5471682949875
 20
88.95171592097664
 30
0.0
 11
303.64947878191
 21
90.12113013762085
 31
0.0
  0
LINE
  5
117
330
1F
100
AcDbEntity
  8
LAY-1
  6
CONTINUOUS
 62
     3
100
AcDbLine
 10
297.1521727365262
 20
84.66924303130033
 30
0.0
 11
303.6494787819064
 21
90.1211301376248
 31
0.0
  0
LINE
  5
118
330
1F
100
AcDbEntity
  8
LAY-1
  6
CONTINUOUS
 62
     3
100
AcDbLine
 10
303.5471682949878
 20
88.95171592097864
 30
0.0
 11
297.6857246013896
 21
84.03338067951401
 31
0.0
  0
POINT
  5
119
330
1F
100
AcDbEntity
  8
LAY-1
  6
CONTINUOUS
 62
     7
100
AcDbPoint
 10
294.05397460666
 20
88.361531783137
 30
0.0
  0
LINE
  5
11A
330
1F
100
AcDbEntity
  8
LAY-1
  6
CONTINUOUS
 62
     3
100
AcDbLine
 10
303.5471682949841
 20
88.95171592097694
 30
0.0
 11
309.3322567821641
 21
82.05731593290483
 31
0.0
  0
LINE
  5
11B
330
1F
100
AcDbEntity
  8
LAY-1
  6
CONTINUOUS
 62
     3
100
AcDbLine
 10
303.4708130885689
 20
77.13898069144268
 30
0.0
 11
309.3322567821641
 21
82.05731593290483
 31
0.0
  0
LINE
  5
11C
330
1F
100
AcDbEntity
  8
LAY-1
  6
CONTINUOUS
 62
     3
100
AcDbLine
 10
303.5078232577619
 20
88.9187015147537
 30
0.0
 11
309.2929117449411
 21
82.02430152668238
 31
0.0
  0
LINE
  5
11D
330
1F
100
AcDbEntity
  8
LAY-1
  6
CONTINUOUS
 62
     3
100
AcDbLine
 10
298.3637285900779
 20
84.60229357635905
 30
0.0
 11
304.1488170772571
 21
77.70789358828772
 31
0.0
  0
LINE
  5
11E
330
1F
100
AcDbEntity
  8
LAY-1
  6
CONTINUOUS
 62
     1
100
AcDbLine
 10
298.3637285900772
 20
84.60229357635983
 30
0.0
 11
309.2929117449401
 21
82.02430152668369
 31
0.0
  0
LINE
  5
11F
330
1F
100
AcDbEntity
  8
LAY-1
  6
CONTINUOUS
 62
     1
100
AcDbLine
 10
303.5078232577612
 20
88.91870151475449
 30
0.0
 11
304.1488170772561
 21
77.70789358828902
 31
0.0
  0
LINE
  5
120
330
1F
100
AcDbEntity
  8
LAY-1
  6
CONTINUOUS
 62
     3
100
AcDbLine
 10
291.8242809077934
 20
79.11504543804928
 30
0.0
 11
290.6548666911492
 21
79.21735592497161
 31
0.0
  0
LINE
  5
121
330
1F
100
AcDbEntity
  8
LAY-1
  6
CONTINUOUS
 62
     3
100
AcDbLine
 10
297.1521727365262
 20
84.66924303130033
 30
0.0
 11
290.6548666911459
 21
79.21735592497585
 31
0.0
  0
LINE
  5
122
330
1F
100
AcDbEntity
  8
LAY-1
  6
CONTINUOUS
 62
     3
100
AcDbLine
 10
291.8242809077914
 20
79.11504543804938
 30
0.0
 11
297.6857246013896
 21
84.03338067951401
 31
0.0
  0
POINT
  5
123
330
1F
100
AcDbEntity
  8
LAY-1
  6
CONTINUOUS
 62
     7
100
AcDbPoint
 10
294.05397460666
 20
88.361531783137
 30
0.0
  0
LINE
  5
124
330
1F
100
AcDbEntity
  8
LAY-1
  6
CONTINUOUS
 62
     3
100
AcDbLine
 10
291.8242809077937
 20
79.11504543805265
 30
0.0
 11
297.6093693949736
 21
72.22064544998045
 31
0.0
  0
LINE
  5
125
330
1F
100
AcDbEntity
  8
LAY-1
  6
CONTINUOUS
 62
     3
100
AcDbLine
 10
303.4708130885689
 20
77.13898069144268
 30
0.0
 11
297.6093693949736
 21
72.22064544998045
 31
0.0
  0
LINE
  5
126
330
1F
100
AcDbEntity
  8
LAY-1
  6
CONTINUOUS
 62
     3
100
AcDbLine
 10
291.8636259450174
 20
79.1480598442743
 30
0.0
 11
297.6487144321966
 21
72.25365985620297
 31
0.0
  0
LINE
  5
127
330
1F
100
AcDbEntity
  8
LAY-1
  6
CONTINUOUS
 62
     3
100
AcDbLine
 10
297.0077206127013
 20
83.46446778266898
 30
0.0
 11
302.7928090998806
 21
76.57006779459765
 31
0.0
  0
LINE
  5
128
330
1F
100
AcDbEntity
  8
LAY-1
  6
CONTINUOUS
 62
     1
100
AcDbLine
 10
297.0077206127007
 20
83.46446778266976
 30
0.0
 11
297.6487144321956
 21
72.25365985620428
 31
0.0
  0
LINE
  5
129
330
1F
100
AcDbEntity
  8
LAY-1
  6
CONTINUOUS
 62
     1
100
AcDbLine
 10
291.8636259450167
 20
79.14805984427508
 30
0.0
 11
302.7928090998795
 21
76.57006779459896
 31
0.0
  0
LINE
  5
12A
330
1F
100
AcDbEntity
  8
LAY-1
  6
EXLTYPE2
 62
     1
100
AcDbLine
 10
207.0000000000001
 20
217.0
 30
0.0
 11
308.4871281002064
 21
96.05235048451017
 31
0.0
  0
LINE
  5
12B
330
1F
100
AcDbEntity
  8
LAY-1
  6
EXLTYPE2
 62
     1
100
AcDbLine
 10
292.114421363051
 20
90.6730013292399
 30
0.0
 11
305.56905457945
 21
74.63839385655898
 31
0.0
  0
LINE
  5
12C
330
1F
100
AcDbEntity
  8
LAY-1
  6
CONTINUOUS
 62
     3
100
AcDbLine
 10
323.453923617909
 20
140.4445712310815
 30
0.0
 11
321.8469545936941
 21
142.3596823388772
 31
0.0
  0
LINE
  5
12D
330
1F
100
AcDbEntity
  8
LAY-1
  6
CONTINUOUS
 62
     3
100
AcDbLine
 10
262.1703681683908
 20
89.02156245615839
 30
0.0
 11
260.5633991441758
 21
90.93667356395429
 31
0.0
  0
LINE
  5
12E
330
1F
100
AcDbEntity
  8
LAY-1
  6
CONTINUOUS
 62
     1
100
AcDbLine
 10
291.8242809077914
 20
79.11504543804938
 30
0.0
 11
288.327792394343
 21
83.55669440072462
 31
0.0
  0
LINE
  5
12F
330
1F
100
AcDbEntity
  8
LAY-1
  6
CONTINUOUS
 62
     3
100
AcDbLine
 10
290.6548666911492
 20
79.21735592497161
 30
0.0
 11
287.6720583510385
 21
83.00646820683747
 31
0.0
  0
LINE
  5
130
330
1F
100
AcDbEntity
  8
LAY-1
  6
CONTINUOUS
 62
     3
100
AcDbLine
 10
303.64947878191
 20
90.12113013762085
 30
0.0
 11
300.4358908622847
 21
93.71659535943273
 31
0.0
  0
LINE
  5
131
330
1F
100
AcDbEntity
  8
LAY-1
  6
CONTINUOUS
 62
     1
100
AcDbLine
 10
303.5471682949878
 20
88.95171592097864
 30
0.0
 11
299.7801568189803
 21
93.16636916554558
 31
0.0
  0
LINE
  5
132
330
1F
100
AcDbEntity
  8
LAY-1
  6
CONTINUOUS
 62
     3
100
AcDbLine
 10
292.8121458931499
 20
114.73306684362
 30
0.0
 11
337.6257458156101
 21
152.3361420102824
 31
0.0
  0
LINE
  5
133
330
1F
100
AcDbEntity
  8
LAY-1
  6
CONTINUOUS
 62
     3
100
AcDbLine
 10
292.81214589315
 20
114.7330668436199
 30
0.0
 11
247.9985459706897
 21
77.12999167695742
 31
0.0
  0
LINE
  5
134
330
1F
100
AcDbEntity
  8
LAY-1
  6
CONTINUOUS
 62
     3
100
AcDbLine
 10
261.1008118312881
 20
64.62676692019123
 30
0.0
 11
347.6638339037298
 21
137.2617668147677
 31
0.0
  0
ARC
  5
135
330
1F
100
AcDbEntity
  8
LAY-1
  6
CONTINUOUS
 62
     3
100
AcDbCircle
 10
335.9209756614941
 20
136.4871206823676
 30
0.0
 40
16.95475041565776
100
AcDbArc
 50
291.7914693870677
 51
328.2085306129323
  0
ARC
  5
136
330
1F
100
AcDbEntity
  8
LAY-1
  6
CONTINUOUS
 62
     3
100
AcDbCircle
 10
333.8227544629995
 20
124.7118318612049
 30
0.0
 40
9.283066436583043
100
AcDbArc
 50
285.3047958966721
 51
334.695204103328
  0
ARC
  5
137
330
1F
100
AcDbEntity
  8
LAY-1
  6
CONTINUOUS
 62
     3
100
AcDbCircle
 10
350.9294919514692
 20
129.0512453449572
 30
0.0
 40
1.6112511227376
100
AcDbArc
 50
248.2344302748176
 51
11.76556972518244
  0
LINE
  5
138
330
1F
100
AcDbEntity
  8
LAY-1
  6
CONTINUOUS
 62
     3
100
AcDbLine
 10
351.9652101142366
 20
127.8169771132356
 30
0.0
 11
339.7898232568216
 21
117.600614491738
 31
0.0
  0
LINE
  5
139
330
1F
100
AcDbEntity
  8
LAY-1
  6
CONTINUOUS
 62
     3
100
AcDbLine
 10
352.5068908462198
 20
129.3797920043017
 30
0.0
 11
346.6247414299784
 21
136.3898647032835
 31
0.0
  0
LINE
  5
13A
330
1F
100
AcDbEntity
  8
LAY-1
  6
CONTINUOUS
 62
     3
100
AcDbLine
 10
350.3320242105942
 20
127.5548622124885
 30
0.0
 11
344.4498747943528
 21
134.5649349114702
 31
0.0
  0
LINE
  5
13B
330
1F
100
AcDbEntity
  8
LAY-1
  6
CONTINUOUS
 62
     3
100
AcDbLine
 10
342.2150807357189
 20
120.7439379364337
 30
0.0
 11
336.3329313194774
 21
127.7540106354155
 31
0.0
  0
LINE
  5
13C
330
1F
100
AcDbEntity
  8
LAY-1
  6
CONTINUOUS
 62
     3
100
AcDbLine
 10
336.2730549995998
 20
115.7579863328103
 30
0.0
 11
330.3909055833583
 21
122.7680590317921
 31
0.0
  0
LINE
  5
13D
330
1F
100
AcDbEntity
  8
LAY-1
  6
EXLTYPE2
 62
     1
100
AcDbLine
 10
347.1465183820075
 20
119.2838438891259
 30
0.0
 11
336.2003329645963
 21
132.3289996855281
 31
0.0
  0
ARC
  5
13E
330
1F
100
AcDbEntity
  8
LAY-1
  6
CONTINUOUS
 62
     3
100
AcDbCircle
 10
263.9028152826794
 20
76.05670887043806
 30
0.0
 40
16.95475041565776
100
AcDbArc
 50
291.7914693870675
 51
328.2085306129323
  0
ARC
  5
13F
330
1F
100
AcDbEntity
  8
LAY-1
  6
CONTINUOUS
 62
     3
100
AcDbCircle
 10
275.8635632951791
 20
76.07829592895345
 30
0.0
 40
9.283066436583043
100
AcDbArc
 50
285.3047958966717
 51
334.6952041033279
  0
ARC
  5
140
330
1F
100
AcDbEntity
  8
LAY-1
  6
CONTINUOUS
 62
     3
100
AcDbCircle
 10
268.6195214621548
 20
59.98497946516073
 30
0.0
 40
1.6112511227376
100
AcDbArc
 50
248.234430274817
 51
11.76556972518284
  0
LINE
  5
141
330
1F
100
AcDbEntity
  8
LAY-1
  6
CONTINUOUS
 62
     3
100
AcDbLine
 10
269.6551878145097
 20
58.75066775934118
 30
0.0
 11
281.8305746719248
 21
68.96703038083885
 31
0.0
  0
LINE
  5
142
330
1F
100
AcDbEntity
  8
LAY-1
  6
CONTINUOUS
 62
     3
100
AcDbLine
 10
268.0220537212787
 20
58.48859633269117
 30
0.0
 11
262.1399043050372
 21
65.4986690316729
 31
0.0
  0
LINE
  5
143
330
1F
100
AcDbEntity
  8
LAY-1
  6
CONTINUOUS
 62
     3
100
AcDbLine
 10
270.1969203569043
 20
60.31352612450439
 30
0.0
 11
264.3147709406628
 21
67.32359882348615
 31
0.0
  0
LINE
  5
144
330
1F
100
AcDbEntity
  8
LAY-1
  6
CONTINUOUS
 62
     3
100
AcDbLine
 10
278.3138638317797
 20
67.12445040055914
 30
0.0
 11
272.4317144155382
 21
74.13452309954087
 31
0.0
  0
LINE
  5
145
330
1F
100
AcDbEntity
  8
LAY-1
  6
CONTINUOUS
 62
     3
100
AcDbLine
 10
284.2558895678987
 20
72.1104020041825
 30
0.0
 11
278.3737401516573
 21
79.12047470316423
 31
0.0
  0
LINE
  5
146
330
1F
100
AcDbEntity
  8
LAY-1
  6
EXLTYPE2
 62
     1
100
AcDbLine
 10
278.8954406091393
 20
62.01438970246051
 30
0.0
 11
267.9492551917281
 21
75.05954549886266
 31
0.0
  0
LINE
  5
147
330
1F
100
AcDbEntity
  8
LAY-1
  6
CONTINUOUS
 62
     3
100
AcDbLine
 10
132.0
 20
522.0
 30
0.0
 11
134.0
 21
522.0
 31
0.0
  0
LINE
  5
148
330
1F
100
AcDbEntity
  8
LAY-1
  6
CONTINUOUS
 62
     3
100
AcDbLine
 10
132.0
 20
522.0
 30
0.0
 11
132.0
 21
464.0
 31
0.0
  0
LINE
  5
149
330
1F
100
AcDbEntity
  8
LAY-1
  6
CONTINUOUS
 62
     3
100
AcDbLine
 10
148.0
 20
551.5
 30
0.0
 11
134.0
 21
551.5
 31
0.0
  0
ARC
  5
14A
330
1F
100
AcDbEntity
  8
LAY-1
  6
CONTINUOUS
 62
     3
100
AcDbCircle
 10
148.0
 20
549.5
 30
0.0
 40
2.0
100
AcDbArc
 50
0.0
 51
90.00000000000001
  0
LINE
  5
14B
330
1F
100
AcDbEntity
  8
LAY-1
  6
EXLTYPE2
 62
     1
100
AcDbLine
 10
156.0
 20
534.0
 30
0.0
 11
126.0
 21
534.0
 31
0.0
  0
LINE
  5
14C
330
1F
100
AcDbEntity
  8
LAY-1
  6
CONTINUOUS
 62
     3
100
AcDbLine
 10
157.57808549004
 20
504.2875063215936
 30
0.0
 11
175.0
 21
501.5
 31
0.0
  0
ARC
  5
14D
330
1F
100
AcDbEntity
  8
LAY-1
  6
CONTINUOUS
 62
     3
100
AcDbCircle
 10
159.0
 20
513.174472008844
 30
0.0
 40
9.0
100
AcDbArc
 50
180.0
 51
260.9097230791776
  0
LINE
  5
14E
330
1F
100
AcDbEntity
  8
LAY-1
  6
CONTINUOUS
 62
     3
100
AcDbLine
 10
402.0
 20
522.0
 30
0.0
 11
400.0
 21
522.0
 31
0.0
  0
LINE
  5
14F
330
1F
100
AcDbEntity
  8
LAY-1
  6
CONTINUOUS
 62
     3
100
AcDbLine
 10
402.0
 20
522.0
 30
0.0
 11
402.0
 21
464.0
 31
0.0
  0
LINE
  5
150
330
1F
100
AcDbEntity
  8
LAY-1
  6
CONTINUOUS
 62
     3
100
AcDbLine
 10
386.0
 20
551.5
 30
0.0
 11
400.0
 21
551.5
 31
0.0
  0
ARC
  5
151
330
1F
100
AcDbEntity
  8
LAY-1
  6
CONTINUOUS
 62
     3
100
AcDbCircle
 10
386.0
 20
549.5
 30
0.0
 40
2.0
100
AcDbArc
 50
90.00000000000001
 51
180.0
  0
ARC
  5
152
330
1F
100
AcDbEntity
  8
LAY-1
  6
CONTINUOUS
 62
     3
100
AcDbCircle
 10
375.0
 20
513.174472008844
 30
0.0
 40
9.0
100
AcDbArc
 50
279.0902769208224
 51
0.0
  0
LINE
  5
153
330
1F
100
AcDbEntity
  8
LAY-1
  6
CONTINUOUS
 62
     3
100
AcDbLine
 10
132.0
 20
406.0
 30
0.0
 11
134.0
 21
406.0
 31
0.0
  0
LINE
  5
154
330
1F
100
AcDbEntity
  8
LAY-1
  6
CONTINUOUS
 62
     3
100
AcDbLine
 10
132.0
 20
406.0
 30
0.0
 11
132.0
 21
464.0
 31
0.0
  0
LINE
  5
155
330
1F
100
AcDbEntity
  8
LAY-1
  6
CONTINUOUS
 62
     3
100
AcDbLine
 10
148.0
 20
376.5
 30
0.0
 11
134.0
 21
376.5
 31
0.0
  0
ARC
  5
156
330
1F
100
AcDbEntity
  8
LAY-1
  6
CONTINUOUS
 62
     3
100
AcDbCircle
 10
148.0
 20
378.5
 30
0.0
 40
2.0
100
AcDbArc
 50
270.0
 51
0.0
  0
LINE
  5
157
330
1F
100
AcDbEntity
  8
LAY-1
  6
EXLTYPE2
 62
     1
100
AcDbLine
 10
156.0
 20
394.0
 30
0.0
 11
126.0
 21
394.0
 31
0.0
  0
LINE
  5
158
330
1F
100
AcDbEntity
  8
LAY-1
  6
CONTINUOUS
 62
     3
100
AcDbLine
 10
402.0
 20
406.0000000000001
 30
0.0
 11
400.0
 21
406.0000000000001
 31
0.0
  0
LINE
  5
159
330
1F
100
AcDbEntity
  8
LAY-1
  6
CONTINUOUS
 62
     3
100
AcDbLine
 10
402.0
 20
406.0000000000001
 30
0.0
 11
402.0
 21
464.0
 31
0.0
  0
LINE
  5
15A
330
1F
100
AcDbEntity
  8
LAY-1
  6
CONTINUOUS
 62
     3
100
AcDbLine
 10
386.0
 20
376.5000000000001
 30
0.0
 11
400.0
 21
376.5000000000001
 31
0.0
  0
ARC
  5
15B
330
1F
100
AcDbEntity
  8
LAY-1
  6
CONTINUOUS
 62
     3
100
AcDbCircle
 10
386.0
 20
378.5000000000001
 30
0.0
 40
2.0
100
AcDbArc
 50
180.0
 51
270.0
  0
LINE
  5
15C
330
1F
100
AcDbEntity
  8
LAY-1
  6
EXLTYPE2
 62
     1
100
AcDbLine
 10
378.0
 20
394.0000000000001
 30
0.0
 11
408.0
 21
394.0000000000001
 31
0.0
  0
LINE
  5
15D
330
1F
100
AcDbEntity
  8
LAY-1
  6
CONTINUOUS
 62
     3
100
AcDbLine
 10
376.4219145099601
 20
423.7124936784064
 30
0.0
 11
359.0
 21
426.5
 31
0.0
  0
ARC
  5
15E
330
1F
100
AcDbEntity
  8
LAY-1
  6
CONTINUOUS
 62
     3
100
AcDbCircle
 10
375.0
 20
414.825527991156
 30
0.0
 40
9.0
100
AcDbArc
 50
0.0000000000001719
 51
80.90972307917768
  0
LINE
  5
15F
330
1F
100
AcDbEntity
  8
LAY-1
  6
EXLTYPE2
 62
     1
100
AcDbLine
 10
378.0
 20
534.0
 30
0.0
 11
408.0
 21
534.0
 31
0.0
  0
LINE
  5
160
330
1F
100
AcDbEntity
  8
LAY-1
  6
CONTINUOUS
 62
     3
100
AcDbLine
 10
376.4219145099594
 20
504.2875063215935
 30
0.0
 11
359.0
 21
501.5
 31
0.0
  0
LINE
  5
161
330
1F
100
AcDbEntity
  8
LAY-1
  6
CONTINUOUS
 62
     3
100
AcDbLine
 10
195.4825820738201
 20
501.5
 30
0.0
 11
175.0000000000001
 21
501.5
 31
0.0
  0
ARC
  5
162
330
1F
100
AcDbEntity
  8
LAY-1
  6
CONTINUOUS
 62
     3
100
AcDbCircle
 10
249.1365234592802
 20
513.2513768595721
 30
0.0
 40
30.0
100
AcDbArc
 50
232.4319054048215
 51
305.1633186676272
  0
LINE
  5
163
330
1F
100
AcDbEntity
  8
LAY-1
  6
CONTINUOUS
 62
     3
100
AcDbLine
 10
306.7274288312589
 20
501.5
 30
0.0
 11
359.0
 21
501.5
 31
0.0
  0
LINE
  5
164
330
1F
100
AcDbEntity
  8
LAY-1
  6
CONTINUOUS
 62
     3
100
AcDbLine
 10
400.0
 20
376.5
 30
0.0
 11
400.0
 21
551.5
 31
0.0
  0
LINE
  5
165
330
1F
100
AcDbEntity
  8
LAY-1
  6
CONTINUOUS
 62
     3
100
AcDbLine
 10
134.0
 20
376.5
 30
0.0
 11
134.0
 21
551.5
 31
0.0
  0
LINE
  5
166
330
1F
100
AcDbEntity
  8
LAY-1
  6
CONTINUOUS
 62
     3
100
AcDbLine
 10
384.0
 20
378.5
 30
0.0
 11
384.0
 21
549.5
 31
0.0
  0
LINE
  5
167
330
1F
100
AcDbEntity
  8
LAY-1
  6
CONTINUOUS
 62
     3
100
AcDbLine
 10
150.0
 20
376.5
 30
0.0
 11
150.0
 21
549.5
 31
0.0
  0
LINE
  5
168
330
1F
100
AcDbEntity
  8
LAY-1
  6
EXLTYPE2
 62
     1
100
AcDbLine
 10
125.0
 20
464.0
 30
0.0
 11
409.5
 21
464.0000000000001
 31
0.0
  0
ELLIPSE
  5
169
330
1F
100
AcDbEntity
  8
LAY-1
  6
CONTINUOUS
 62
     3
100
AcDbEllipse
 10
518.5
 20
129.57899396081
 30
0.0
 11
-14.0
 21
1.714505518806294E-15
 31
0.0
210
0.0
220
0.0
230
1.0
 40
0.6405962909521422
 41
4.71238898038469
 42
6.283185307179586
  0
LINE
  5
16A
330
1F
100
AcDbEntity
  8
LAY-1
  6
CONTINUOUS
 62
     3
100
AcDbLine
 10
504.5
 20
129.57899396081
 30
0.0
 11
504.5
 21
72.30953977414603
 31
0.0
  0
LINE
  5
16B
330
1F
100
AcDbEntity
  8
LAY-1
  6
CONTINUOUS
 62
     3
100
AcDbLine
 10
504.5
 20
143.36779393695
 30
0.0
 11
504.5
 21
129.57899396081
 31
0.0
  0
ELLIPSE
  5
16C
330
1F
100
AcDbEntity
  8
LAY-1
  6
CONTINUOUS
 62
     3
100
AcDbEllipse
 10
607.5
 20
129.57899396081
 30
0.0
 11
-14.0
 21
1.714505518806294E-15
 31
0.0
210
0.0
220
0.0
230
1.0
 40
0.6405962909521423
 41
3.141592653589791
 42
4.71238898038469
  0
LINE
  5
16D
330
1F
100
AcDbEntity
  8
LAY-1
  6
CONTINUOUS
 62
     3
100
AcDbLine
 10
621.5
 20
129.57899396081
 30
0.0
 11
621.5
 21
72.309539774146
 31
0.0
  0
LINE
  5
16E
330
1F
100
AcDbEntity
  8
LAY-1
  6
CONTINUOUS
 62
     3
100
AcDbLine
 10
621.5
 20
143.36779393695
 30
0.0
 11
621.5
 21
129.57899396081
 31
0.0
  0
LINE
  5
16F
330
1F
100
AcDbEntity
  8
LAY-1
  6
CONTINUOUS
 62
     3
100
AcDbLine
 10
507.8564388893333
 20
120.7439219286416
 30
0.0
 11
515.6131527915762
 21
115.7580023404
 31
0.0
  0
LINE
  5
170
330
1F
100
AcDbEntity
  8
LAY-1
  6
CONTINUOUS
 62
     3
100
AcDbLine
 10
529.0482132075039
 20
124.3939715990356
 30
0.0
 11
521.2914677320501
 21
129.3797920043028
 31
0.0
  0
LINE
  5
171
330
1F
100
AcDbEntity
  8
LAY-1
  6
CONTINUOUS
 62
     3
100
AcDbLine
 10
510.6954393819846
 20
127.5548184792681
 30
0.0
 11
521.2914677320501
 21
129.3797920043028
 31
0.0
  0
LINE
  5
172
330
1F
100
AcDbEntity
  8
LAY-1
  6
CONTINUOUS
 62
     3
100
AcDbLine
 10
510.6954393819846
 20
127.5548184792681
 30
0.0
 11
507.8563957559581
 21
120.7438942030424
 31
0.0
  0
LINE
  5
173
330
1F
100
AcDbEntity
  8
LAY-1
  6
CONTINUOUS
 62
     3
100
AcDbLine
 10
515.6131096578226
 20
115.7579746146604
 30
0.0
 11
526.2091801902251
 21
117.5829530389935
 31
0.0
  0
LINE
  5
174
330
1F
100
AcDbEntity
  8
LAY-1
  6
CONTINUOUS
 62
     3
100
AcDbLine
 10
526.2091045281779
 20
117.5830016730371
 30
0.0
 11
529.0482132075039
 21
124.3939715990356
 31
0.0
  0
POLYLINE
  5
175
330
1F
100
AcDbEntity
  8
LAY-1
  6
CONTINUOUS
 62
     3
100
AcDb2dPolyline
 66
     1
 10
0.0
 20
0.0
 30
0.0
 70
   128
  0
VERTEX
  5
176
330
175
100
AcDbEntity
  8
LAY-1
  6
CONTINUOUS
 62
     3
100
AcDbVertex
100
AcDb2dVertex
 10
527.9523859873855
 20
122.5689550066447
 30
0.0
  0
VERTEX
  5
177
330
175
100
AcDbEntity
  8
LAY-1
  6
CONTINUOUS
 62
     3
100
AcDbVertex
100
AcDb2dVertex
 10
527.9505538636157
 20
122.6888483233442
 30
0.0
  0
VERTEX
  5
178
330
175
100
AcDbEntity
  8
LAY-1
  6
CONTINUOUS
 62
     3
100
AcDbVertex
100
AcDb2dVertex
 10
527.9450599547339
 20
122.8086953954097
 30
0.0
  0
VERTEX
  5
179
330
175
100
AcDbEntity
  8
LAY-1
  6
CONTINUOUS
 62
     3
100
AcDbVertex
100
AcDb2dVertex
 10
527.9359063794825
 20
122.9284500187956
 30
0.0
  0
VERTEX
  5
17A
330
175
100
AcDbEntity
  8
LAY-1
  6
CONTINUOUS
 62
     3
100
AcDbVertex
100
AcDb2dVertex
 10
527.9230966675184
 20
123.0480660251159
 30
0.0
  0
VERTEX
  5
17B
330
175
100
AcDbEntity
  8
LAY-1
  6
CONTINUOUS
 62
     3
100
AcDbVertex
100
AcDb2dVertex
 10
527.9066357580506
 20
123.1674972994444
 30
0.0
  0
VERTEX
  5
17C
330
175
100
AcDbEntity
  8
LAY-1
  6
CONTINUOUS
 62
     3
100
AcDbVertex
100
AcDb2dVertex
 10
527.8865299979351
 20
123.2866977980939
 30
0.0
  0
VERTEX
  5
17D
330
175
100
AcDbEntity
  8
LAY-1
  6
CONTINUOUS
 62
     3
100
AcDbVertex
100
AcDb2dVertex
 10
527.8627871392268
 20
123.4056215663677
 30
0.0
  0
VERTEX
  5
17E
330
175
100
AcDbEntity
  8
LAY-1
  6
CONTINUOUS
 62
     3
100
AcDbVertex
100
AcDb2dVertex
 10
527.8354163361896
 20
123.5242227562774
 30
0.0
  0
VERTEX
  5
17F
330
175
100
AcDbEntity
  8
LAY-1
  6
CONTINUOUS
 62
     3
100
AcDbVertex
100
AcDb2dVertex
 10
527.8044281417657
 20
123.6424556442188
 30
0.0
  0
VERTEX
  5
180
330
175
100
AcDbEntity
  8
LAY-1
  6
CONTINUOUS
 62
     3
100
AcDbVertex
100
AcDb2dVertex
 10
527.7698345035051
 20
123.7602746486004
 30
0.0
  0
VERTEX
  5
181
330
175
100
AcDbEntity
  8
LAY-1
  6
CONTINUOUS
 62
     3
100
AcDbVertex
100
AcDb2dVertex
 10
527.731648758959
 20
123.877634347416
 30
0.0
  0
VERTEX
  5
182
330
175
100
AcDbEntity
  8
LAY-1
  6
CONTINUOUS
 62
     3
100
AcDbVertex
100
AcDb2dVertex
 10
527.689885630536
 20
123.9944894957579
 30
0.0
  0
VERTEX
  5
183
330
175
100
AcDbEntity
  8
LAY-1
  6
CONTINUOUS
 62
     3
100
AcDbVertex
100
AcDb2dVertex
 10
527.6445612198247
 20
124.1107950432597
 30
0.0
  0
VERTEX
  5
184
330
175
100
AcDbEntity
  8
LAY-1
  6
CONTINUOUS
 62
     3
100
AcDbVertex
100
AcDb2dVertex
 10
527.595693001384
 20
124.2265061514646
 30
0.0
  0
VERTEX
  5
185
330
175
100
AcDbEntity
  8
LAY-1
  6
CONTINUOUS
 62
     3
100
AcDbVertex
100
AcDb2dVertex
 10
527.5432998160057
 20
124.3415782111128
 30
0.0
  0
VERTEX
  5
186
330
175
100
AcDbEntity
  8
LAY-1
  6
CONTINUOUS
 62
     3
100
AcDbVertex
100
AcDb2dVertex
 10
527.4874018634478
 20
124.4559668593393
 30
0.0
  0
VERTEX
  5
187
330
175
100
AcDbEntity
  8
LAY-1
  6
CONTINUOUS
 62
     3
100
AcDbVertex
100
AcDb2dVertex
 10
527.4280206946463
 20
124.5696279967776
 30
0.0
  0
VERTEX
  5
188
330
175
100
AcDbEntity
  8
LAY-1
  6
CONTINUOUS
 62
     3
100
AcDbVertex
100
AcDb2dVertex
 10
527.3651792034045
 20
124.6825178045614
 30
0.0
  0
VERTEX
  5
189
330
175
100
AcDbEntity
  8
LAY-1
  6
CONTINUOUS
 62
     3
100
AcDbVertex
100
AcDb2dVertex
 10
527.298901617566
 20
124.7945927612179
 30
0.0
  0
VERTEX
  5
18A
330
175
100
AcDbEntity
  8
LAY-1
  6
CONTINUOUS
 62
     3
100
AcDbVertex
100
AcDb2dVertex
 10
527.229213489671
 20
124.9058096594468
 30
0.0
  0
VERTEX
  5
18B
330
175
100
AcDbEntity
  8
LAY-1
  6
CONTINUOUS
 62
     3
100
AcDbVertex
100
AcDb2dVertex
 10
527.1561416871047
 20
125.016125622778
 30
0.0
  0
VERTEX
  5
18C
330
175
100
AcDbEntity
  8
LAY-1
  6
CONTINUOUS
 62
     3
100
AcDbVertex
100
AcDb2dVertex
 10
527.0797143817367
 20
125.1254981221012
 30
0.0
  0
VERTEX
  5
18D
330
175
100
AcDbEntity
  8
LAY-1
  6
CONTINUOUS
 62
     3
100
AcDbVertex
100
AcDb2dVertex
 10
526.9999610390585
 20
125.233884992063
 30
0.0
  0
VERTEX
  5
18E
330
175
100
AcDbEntity
  8
LAY-1
  6
CONTINUOUS
 62
     3
100
AcDbVertex
100
AcDb2dVertex
 10
526.9169124068217
 20
125.3412444473213
 30
0.0
  0
VERTEX
  5
18F
330
175
100
AcDbEntity
  8
LAY-1
  6
CONTINUOUS
 62
     3
100
AcDbVertex
100
AcDb2dVertex
 10
526.8306005031822
 20
125.4475350986562
 30
0.0
  0
VERTEX
  5
190
330
175
100
AcDbEntity
  8
LAY-1
  6
CONTINUOUS
 62
     3
100
AcDbVertex
100
AcDb2dVertex
 10
526.741058604355
 20
125.5527159689249
 30
0.0
  0
VERTEX
  5
191
330
175
100
AcDbEntity
  8
LAY-1
  6
CONTINUOUS
 62
     3
100
AcDbVertex
100
AcDb2dVertex
 10
526.6483212317829
 20
125.6567465088604
 30
0.0
  0
VERTEX
  5
192
330
175
100
AcDbEntity
  8
LAY-1
  6
CONTINUOUS
 62
     3
100
AcDbVertex
100
AcDb2dVertex
 10
526.5524241388264
 20
125.7595866127037
 30
0.0
  0
VERTEX
  5
193
330
175
100
AcDbEntity
  8
LAY-1
  6
CONTINUOUS
 62
     3
100
AcDbVertex
100
AcDb2dVertex
 10
526.4534042969772
 20
125.8611966336651
 30
0.0
  0
VERTEX
  5
194
330
175
100
AcDbEntity
  8
LAY-1
  6
CONTINUOUS
 62
     3
100
AcDbVertex
100
AcDb2dVertex
 10
526.3512998816034
 20
125.9615373992093
 30
0.0
  0
VERTEX
  5
195
330
175
100
AcDbEntity
  8
LAY-1
  6
CONTINUOUS
 62
     3
100
AcDbVertex
100
AcDb2dVertex
 10
526.2461502572304
 20
126.0605702261564
 30
0.0
  0
VERTEX
  5
196
330
175
100
AcDbEntity
  8
LAY-1
  6
CONTINUOUS
 62
     3
100
AcDbVertex
100
AcDb2dVertex
 10
526.1379959623628
 20
126.1582569355957
 30
0.0
  0
VERTEX
  5
197
330
175
100
AcDbEntity
  8
LAY-1
  6
CONTINUOUS
 62
     3
100
AcDbVertex
100
AcDb2dVertex
 10
526.0268786938535
 20
126.254559867603
 30
0.0
  0
VERTEX
  5
198
330
175
100
AcDbEntity
  8
LAY-1
  6
CONTINUOUS
 62
     3
100
AcDbVertex
100
AcDb2dVertex
 10
525.9128412908279
 20
126.3494418957604
 30
0.0
  0
VERTEX
  5
199
330
175
100
AcDbEntity
  8
LAY-1
  6
CONTINUOUS
 62
     3
100
AcDbVertex
100
AcDb2dVertex
 10
525.7959277181657
 20
126.4428664414679
 30
0.0
  0
VERTEX
  5
19A
330
175
100
AcDbEntity
  8
LAY-1
  6
CONTINUOUS
 62
     3
100
AcDbVertex
100
AcDb2dVertex
 10
525.6761830495492
 20
126.5347974880448
 30
0.0
  0
VERTEX
  5
19B
330
175
100
AcDbEntity
  8
LAY-1
  6
CONTINUOUS
 62
     3
100
AcDbVertex
100
AcDb2dVertex
 10
525.5536534500857
 20
126.625199594615
 30
0.0
  0
VERTEX
  5
19C
330
175
100
AcDbEntity
  8
LAY-1
  6
CONTINUOUS
 62
     3
100
AcDbVertex
100
AcDb2dVertex
 10
525.4283861585079
 20
126.7140379097697
 30
0.0
  0
VERTEX
  5
19D
330
175
100
AcDbEntity
  8
LAY-1
  6
CONTINUOUS
 62
     3
100
AcDbVertex
100
AcDb2dVertex
 10
525.3004294689599
 20
126.801278185002
 30
0.0
  0
VERTEX
  5
19E
330
175
100
AcDbEntity
  8
LAY-1
  6
CONTINUOUS
 62
     3
100
AcDbVertex
100
AcDb2dVertex
 10
525.1698327123765
 20
126.8868867879104
 30
0.0
  0
VERTEX
  5
19F
330
175
100
AcDbEntity
  8
LAY-1
  6
CONTINUOUS
 62
     3
100
AcDbVertex
100
AcDb2dVertex
 10
525.0366462374656
 20
126.9708307151643
 30
0.0
  0
VERTEX
  5
1A0
330
175
100
AcDbEntity
  8
LAY-1
  6
CONTINUOUS
 62
     3
100
AcDbVertex
100
AcDb2dVertex
 10
524.9009213912934
 20
127.0530776052262
 30
0.0
  0
VERTEX
  5
1A1
330
175
100
AcDbEntity
  8
LAY-1
  6
CONTINUOUS
 62
     3
100
AcDbVertex
100
AcDb2dVertex
 10
524.7627104994888
 20
127.1335957508273
 30
0.0
  0
VERTEX
  5
1A2
330
175
100
AcDbEntity
  8
LAY-1
  6
CONTINUOUS
 62
     3
100
AcDbVertex
100
AcDb2dVertex
 10
524.6220668460693
 20
127.2123541111907
 30
0.0
  0
VERTEX
  5
1A3
330
175
100
AcDbEntity
  8
LAY-1
  6
CONTINUOUS
 62
     3
100
AcDbVertex
100
AcDb2dVertex
 10
524.4790446528964
 20
127.2893223239971
 30
0.0
  0
VERTEX
  5
1A4
330
175
100
AcDbEntity
  8
LAY-1
  6
CONTINUOUS
 62
     3
100
AcDbVertex
100
AcDb2dVertex
 10
524.333699058771
 20
127.3644707170895
 30
0.0
  0
VERTEX
  5
1A5
330
175
100
AcDbEntity
  8
LAY-1
  6
CONTINUOUS
 62
     3
100
AcDbVertex
100
AcDb2dVertex
 10
524.1860860981744
 20
127.4377703199115
 30
0.0
  0
VERTEX
  5
1A6
330
175
100
AcDbEntity
  8
LAY-1
  6
CONTINUOUS
 62
     3
100
AcDbVertex
100
AcDb2dVertex
 10
524.0362626796657
 20
127.5091928746749
 30
0.0
  0
VERTEX
  5
1A7
330
175
100
AcDbEntity
  8
LAY-1
  6
CONTINUOUS
 62
     3
100
AcDbVertex
100
AcDb2dVertex
 10
523.8842865639385
 20
127.5787108472528
 30
0.0
  0
VERTEX
  5
1A8
330
175
100
AcDbEntity
  8
LAY-1
  6
CONTINUOUS
 62
     3
100
AcDbVertex
100
AcDb2dVertex
 10
523.7302163415543
 20
127.6462974377937
 30
0.0
  0
VERTEX
  5
1A9
330
175
100
AcDbEntity
  8
LAY-1
  6
CONTINUOUS
 62
     3
100
AcDbVertex
100
AcDb2dVertex
 10
523.5741114103515
 20
127.7119265910521
 30
0.0
  0
VERTEX
  5
1AA
330
175
100
AcDbEntity
  8
LAY-1
  6
CONTINUOUS
 62
     3
100
AcDbVertex
100
AcDb2dVertex
 10
523.4160319525462
 20
127.7755730064325
 30
0.0
  0
VERTEX
  5
1AB
330
175
100
AcDbEntity
  8
LAY-1
  6
CONTINUOUS
 62
     3
100
AcDbVertex
100
AcDb2dVertex
 10
523.2560389115291
 20
127.837212147742
 30
0.0
  0
VERTEX
  5
1AC
330
175
100
AcDbEntity
  8
LAY-1
  6
CONTINUOUS
 62
     3
100
AcDbVertex
100
AcDb2dVertex
 10
523.0941939683695
 20
127.8968202526487
 30
0.0
  0
VERTEX
  5
1AD
330
175
100
AcDbEntity
  8
LAY-1
  6
CONTINUOUS
 62
     3
100
AcDbVertex
100
AcDb2dVertex
 10
522.930559518035
 20
127.9543743418407
 30
0.0
  0
VERTEX
  5
1AE
330
175
100
AcDbEntity
  8
LAY-1
  6
CONTINUOUS
 62
     3
100
AcDbVertex
100
AcDb2dVertex
 10
522.7651986453365
 20
128.0098522278848
 30
0.0
  0
VERTEX
  5
1AF
330
175
100
AcDbEntity
  8
LAY-1
  6
CONTINUOUS
 62
     3
100
AcDbVertex
100
AcDb2dVertex
 10
522.5981751006059
 20
128.0632325237783
 30
0.0
  0
VERTEX
  5
1B0
330
175
100
AcDbEntity
  8
LAY-1
  6
CONTINUOUS
 62
     3
100
AcDbVertex
100
AcDb2dVertex
 10
522.4295532751194
 20
128.1144946511934
 30
0.0
  0
VERTEX
  5
1B1
330
175
100
AcDbEntity
  8
LAY-1
  6
CONTINUOUS
 62
     3
100
AcDbVertex
100
AcDb2dVertex
 10
522.2593981762718
 20
128.1636188484087
 30
0.0
  0
VERTEX
  5
1B2
330
175
100
AcDbEntity
  8
LAY-1
  6
CONTINUOUS
 62
     3
100
AcDbVertex
100
AcDb2dVertex
 10
522.0877754025142
 20
128.2105861779273
 30
0.0
  0
VERTEX
  5
1B3
330
175
100
AcDbEntity
  8
LAY-1
  6
CONTINUOUS
 62
     3
100
AcDbVertex
100
AcDb2dVertex
 10
521.9147511180648
 20
128.2553785337756
 30
0.0
  0
VERTEX
  5
1B4
330
175
100
AcDbEntity
  8
LAY-1
  6
CONTINUOUS
 62
     3
100
AcDbVertex
100
AcDb2dVertex
 10
521.7403920273995
 20
128.2979786484827
 30
0.0
  0
VERTEX
  5
1B5
330
175
100
AcDbEntity
  8
LAY-1
  6
CONTINUOUS
 62
     3
100
AcDbVertex
100
AcDb2dVertex
 10
521.5647653495364
 20
128.3383700997354
 30
0.0
  0
VERTEX
  5
1B6
330
175
100
AcDbEntity
  8
LAY-1
  6
CONTINUOUS
 62
     3
100
AcDbVertex
100
AcDb2dVertex
 10
521.3879387921211
 20
128.3765373167091
 30
0.0
  0
VERTEX
  5
1B7
330
175
100
AcDbEntity
  8
LAY-1
  6
CONTINUOUS
 62
     3
100
AcDbVertex
100
AcDb2dVertex
 10
521.2099805253232
 20
128.4124655860682
 30
0.0
  0
VERTEX
  5
1B8
330
175
100
AcDbEntity
  8
LAY-1
  6
CONTINUOUS
 62
     3
100
AcDbVertex
100
AcDb2dVertex
 10
521.0309591555558
 20
128.4461410576377
 30
0.0
  0
VERTEX
  5
1B9
330
175
100
AcDbEntity
  8
LAY-1
  6
CONTINUOUS
 62
     3
100
AcDbVertex
100
AcDb2dVertex
 10
520.8509436990262
 20
128.4775507497413
 30
0.0
  0
VERTEX
  5
1BA
330
175
100
AcDbEntity
  8
LAY-1
  6
CONTINUOUS
 62
     3
100
AcDbVertex
100
AcDb2dVertex
 10
520.6700035551286
 20
128.5066825542048
 30
0.0
  0
VERTEX
  5
1BB
330
175
100
AcDbEntity
  8
LAY-1
  6
CONTINUOUS
 62
     3
100
AcDbVertex
100
AcDb2dVertex
 10
520.4882084796888
 20
128.5335252410221
 30
0.0
  0
VERTEX
  5
1BC
330
175
100
AcDbEntity
  8
LAY-1
  6
CONTINUOUS
 62
     3
100
AcDbVertex
100
AcDb2dVertex
 10
520.3056285580727
 20
128.5580684626846
 30
0.0
  0
VERTEX
  5
1BD
330
175
100
AcDbEntity
  8
LAY-1
  6
CONTINUOUS
 62
     3
100
AcDbVertex
100
AcDb2dVertex
 10
520.1223341781672
 20
128.5803027581673
 30
0.0
  0
VERTEX
  5
1BE
330
175
100
AcDbEntity
  8
LAY-1
  6
CONTINUOUS
 62
     3
100
AcDbVertex
100
AcDb2dVertex
 10
519.9383960032443
 20
128.6002195565764
 30
0.0
  0
VERTEX
  5
1BF
330
175
100
AcDbEntity
  8
LAY-1
  6
CONTINUOUS
 62
     3
100
AcDbVertex
100
AcDb2dVertex
 10
519.7538849447196
 20
128.6178111804515
 30
0.0
  0
VERTEX
  5
1C0
330
175
100
AcDbEntity
  8
LAY-1
  6
CONTINUOUS
 62
     3
100
AcDbVertex
100
AcDb2dVertex
 10
519.5688721348146
 20
128.6330708487241
 30
0.0
  0
VERTEX
  5
1C1
330
175
100
AcDbEntity
  8
LAY-1
  6
CONTINUOUS
 62
     3
100
AcDbVertex
100
AcDb2dVertex
 10
519.3834288991345
 20
128.6459926793305
 30
0.0
  0
VERTEX
  5
1C2
330
175
100
AcDbEntity
  8
LAY-1
  6
CONTINUOUS
 62
     3
100
AcDbVertex
100
AcDb2dVertex
 10
519.197626729172
 20
128.6565716914788
 30
0.0
  0
VERTEX
  5
1C3
330
175
100
AcDbEntity
  8
LAY-1
  6
CONTINUOUS
 62
     3
100
AcDbVertex
100
AcDb2dVertex
 10
519.0115372547457
 20
128.6648038075671
 30
0.0
  0
VERTEX
  5
1C4
330
175
100
AcDbEntity
  8
LAY-1
  6
CONTINUOUS
 62
     3
100
AcDbVertex
100
AcDb2dVertex
 10
518.8252322163863
 20
128.6706858547544
 30
0.0
  0
VERTEX
  5
1C5
330
175
100
AcDbEntity
  8
LAY-1
  6
CONTINUOUS
 62
     3
100
AcDbVertex
100
AcDb2dVertex
 10
518.6387834376806
 20
128.6742155661829
 30
0.0
  0
VERTEX
  5
1C6
330
175
100
AcDbEntity
  8
LAY-1
  6
CONTINUOUS
 62
     3
100
AcDbVertex
100
AcDb2dVertex
 10
518.4522627975824
 20
128.6753915818503
 30
0.0
  0
VERTEX
  5
1C7
330
175
100
AcDbEntity
  8
LAY-1
  6
CONTINUOUS
 62
     3
100
AcDbVertex
100
AcDb2dVertex
 10
518.2657422027031
 20
128.6742134491331
 30
0.0
  0
VERTEX
  5
1C8
330
175
100
AcDbEntity
  8
LAY-1
  6
CONTINUOUS
 62
     3
100
AcDbVertex
100
AcDb2dVertex
 10
518.0792935595911
 20
128.67068162296
 30
0.0
  0
VERTEX
  5
1C9
330
175
100
AcDbEntity
  8
LAY-1
  6
CONTINUOUS
 62
     3
100
AcDbVertex
100
AcDb2dVertex
 10
517.8929887470117
 20
128.6647974656355
 30
0.0
  0
VERTEX
  5
1CA
330
175
100
AcDbEntity
  8
LAY-1
  6
CONTINUOUS
 62
     3
100
AcDbVertex
100
AcDb2dVertex
 10
517.7068995882371
 20
128.6565632463129
 30
0.0
  0
VERTEX
  5
1CB
330
175
100
AcDbEntity
  8
LAY-1
  6
CONTINUOUS
 62
     3
100
AcDbVertex
100
AcDb2dVertex
 10
517.5210978233595
 20
128.6459821401196
 30
0.0
  0
VERTEX
  5
1CC
330
175
100
AcDbEntity
  8
LAY-1
  6
CONTINUOUS
 62
     3
100
AcDbVertex
100
AcDb2dVertex
 10
517.3356550816338
 20
128.6330582269307
 30
0.0
  0
VERTEX
  5
1CD
330
175
100
AcDbEntity
  8
LAY-1
  6
CONTINUOUS
 62
     3
100
AcDbVertex
100
AcDb2dVertex
 10
517.1506428538653
 20
128.617796489796
 30
0.0
  0
VERTEX
  5
1CE
330
175
100
AcDbEntity
  8
LAY-1
  6
CONTINUOUS
 62
     3
100
AcDbVertex
100
AcDb2dVertex
 10
516.9661324648501
 20
128.6002028130179
 30
0.0
  0
VERTEX
  5
1CF
330
175
100
AcDbEntity
  8
LAY-1
  6
CONTINUOUS
 62
     3
100
AcDbVertex
100
AcDb2dVertex
 10
516.7821950458789
 20
128.5802839798812
 30
0.0
  0
VERTEX
  5
1D0
330
175
100
AcDbEntity
  8
LAY-1
  6
CONTINUOUS
 62
     3
100
AcDbVertex
100
AcDb2dVertex
 10
516.5989015073167
 20
128.5580476700383
 30
0.0
  0
VERTEX
  5
1D1
330
175
100
AcDbEntity
  8
LAY-1
  6
CONTINUOUS
 62
     3
100
AcDbVertex
100
AcDb2dVertex
 10
516.4163225112669
 20
128.5335024565465
 30
0.0
  0
VERTEX
  5
1D2
330
175
100
AcDbEntity
  8
LAY-1
  6
CONTINUOUS
 62
     3
100
AcDbVertex
100
AcDb2dVertex
 10
516.2345284443304
 20
128.5066578025628
 30
0.0
  0
VERTEX
  5
1D3
330
175
100
AcDbEntity
  8
LAY-1
  6
CONTINUOUS
 62
     3
100
AcDbVertex
100
AcDb2dVertex
 10
516.0535893904739
 20
128.4775240576948
 30
0.0
  0
VERTEX
  5
1D4
330
175
100
AcDbEntity
  8
LAY-1
  6
CONTINUOUS
 62
     3
100
AcDbVertex
100
AcDb2dVertex
 10
515.8735751040102
 20
128.4461124540099
 30
0.0
  0
VERTEX
  5
1D5
330
175
100
AcDbEntity
  8
LAY-1
  6
CONTINUOUS
 62
     3
100
AcDbVertex
100
AcDb2dVertex
 10
515.6945549827111
 20
128.412435101704
 30
0.0
  0
VERTEX
  5
1D6
330
175
100
AcDbEntity
  8
LAY-1
  6
CONTINUOUS
 62
     3
100
AcDbVertex
100
AcDb2dVertex
 10
515.516598041053
 20
128.3765049844333
 30
0.0
  0
VERTEX
  5
1D7
330
175
100
AcDbEntity
  8
LAY-1
  6
CONTINUOUS
 62
     3
100
AcDbVertex
100
AcDb2dVertex
 10
515.3397728836133
 20
128.3383359543067
 30
0.0
  0
VERTEX
  5
1D8
330
175
100
AcDbEntity
  8
LAY-1
  6
CONTINUOUS
 62
     3
100
AcDbVertex
100
AcDb2dVertex
 10
515.1641476786235
 20
128.2979427265464
 30
0.0
  0
VERTEX
  5
1D9
330
175
100
AcDbEntity
  8
LAY-1
  6
CONTINUOUS
 62
     3
100
AcDbVertex
100
AcDb2dVertex
 10
514.9897901316917
 20
128.2553408738134
 30
0.0
  0
VERTEX
  5
1DA
330
175
100
AcDbEntity
  8
LAY-1
  6
CONTINUOUS
 62
     3
100
AcDbVertex
100
AcDb2dVertex
 10
514.8167674597014
 20
128.2105468202039
 30
0.0
  0
VERTEX
  5
1DB
330
175
100
AcDbEntity
  8
LAY-1
  6
CONTINUOUS
 62
     3
100
AcDbVertex
100
AcDb2dVertex
 10
514.6451463649015
 20
128.1635778349174
 30
0.0
  0
VERTEX
  5
1DC
330
175
100
AcDbEntity
  8
LAY-1
  6
CONTINUOUS
 62
     3
100
AcDbVertex
100
AcDb2dVertex
 10
514.4749930091918
 20
128.1144520255976
 30
0.0
  0
VERTEX
  5
1DD
330
175
100
AcDbEntity
  8
LAY-1
  6
CONTINUOUS
 62
     3
100
AcDbVertex
100
AcDb2dVertex
 10
514.3063729886202
 20
128.0631883313527
 30
0.0
  0
VERTEX
  5
1DE
330
175
100
AcDbEntity
  8
LAY-1
  6
CONTINUOUS
 62
     3
100
AcDbVertex
100
AcDb2dVertex
 10
514.1393513080941
 20
128.0098065154527
 30
0.0
  0
VERTEX
  5
1DF
330
175
100
AcDbEntity
  8
LAY-1
  6
CONTINUOUS
 62
     3
100
AcDbVertex
100
AcDb2dVertex
 10
513.9739923563234
 20
127.9543271577103
 30
0.0
  0
VERTEX
  5
1E0
330
175
100
AcDbEntity
  8
LAY-1
  6
CONTINUOUS
 62
     3
100
AcDbVertex
100
AcDb2dVertex
 10
513.810359880999
 20
127.8967716465474
 30
0.0
  0
VERTEX
  5
1E1
330
175
100
AcDbEntity
  8
LAY-1
  6
CONTINUOUS
 62
     3
100
AcDbVertex
100
AcDb2dVertex
 10
513.6485169642185
 20
127.8371621707482
 30
0.0
  0
VERTEX
  5
1E2
330
175
100
AcDbEntity
  8
LAY-1
  6
CONTINUOUS
 62
     3
100
AcDbVertex
100
AcDb2dVertex
 10
513.4885259981696
 20
127.7755217109062
 30
0.0
  0
VERTEX
  5
1E3
330
175
100
AcDbEntity
  8
LAY-1
  6
CONTINUOUS
 62
     3
100
AcDbVertex
100
AcDb2dVertex
 10
513.3304486610782
 20
127.7118740305638
 30
0.0
  0
VERTEX
  5
1E4
330
175
100
AcDbEntity
  8
LAY-1
  6
CONTINUOUS
 62
     3
100
AcDbVertex
100
AcDb2dVertex
 10
513.1743458934324
 20
127.6462436670515
 30
0.0
  0
VERTEX
  5
1E5
330
175
100
AcDbEntity
  8
LAY-1
  6
CONTINUOUS
 62
     3
100
AcDbVertex
100
AcDb2dVertex
 10
513.0202778744913
 20
127.5786559220284
 30
0.0
  0
VERTEX
  5
1E6
330
175
100
AcDbEntity
  8
LAY-1
  6
CONTINUOUS
 62
     3
100
AcDbVertex
100
AcDb2dVertex
 10
512.8683039990866
 20
127.5091368517279
 30
0.0
  0
VERTEX
  5
1E7
330
175
100
AcDbEntity
  8
LAY-1
  6
CONTINUOUS
 62
     3
100
AcDbVertex
100
AcDb2dVertex
 10
512.7184828547262
 20
127.4377132569125
 30
0.0
  0
VERTEX
  5
1E8
330
175
100
AcDbEntity
  8
LAY-1
  6
CONTINUOUS
 62
     3
100
AcDbVertex
100
AcDb2dVertex
 10
512.5708721990108
 20
127.3644126725426
 30
0.0
  0
VERTEX
  5
1E9
330
175
100
AcDbEntity
  8
LAY-1
  6
CONTINUOUS
 62
     3
100
AcDbVertex
100
AcDb2dVertex
 10
512.4255289373676
 20
127.2892633571605
 30
0.0
  0
VERTEX
  5
1EA
330
175
100
AcDbEntity
  8
LAY-1
  6
CONTINUOUS
 62
     3
100
AcDbVertex
100
AcDb2dVertex
 10
512.2825091011161
 20
127.2122942819978
 30
0.0
  0
VERTEX
  5
1EB
330
175
100
AcDbEntity
  8
LAY-1
  6
CONTINUOUS
 62
     3
100
AcDbVertex
100
AcDb2dVertex
 10
512.1418678258676
 20
127.1335351198056
 30
0.0
  0
VERTEX
  5
1EC
330
175
100
AcDbEntity
  8
LAY-1
  6
CONTINUOUS
 62
     3
100
AcDbVertex
100
AcDb2dVertex
 10
512.0036593302718
 20
127.0530162334164
 30
0.0
  0
VERTEX
  5
1ED
330
175
100
AcDbEntity
  8
LAY-1
  6
CONTINUOUS
 62
     3
100
AcDbVertex
100
AcDb2dVertex
 10
511.8679368951159
 20
126.9707686640389
 30
0.0
  0
VERTEX
  5
1EE
330
175
100
AcDbEntity
  8
LAY-1
  6
CONTINUOUS
 62
     3
100
AcDbVertex
100
AcDb2dVertex
 10
511.7347528427865
 20
126.886824119291
 30
0.0
  0
VERTEX
  5
1EF
330
175
100
AcDbEntity
  8
LAY-1
  6
CONTINUOUS
 62
     3
100
AcDbVertex
100
AcDb2dVertex
 10
511.6041585170998
 20
126.8012149609779
 30
0.0
  0
VERTEX
  5
1F0
330
175
100
AcDbEntity
  8
LAY-1
  6
CONTINUOUS
 62
     3
100
AcDbVertex
100
AcDb2dVertex
 10
511.4762042635083
 20
126.713974192615
 30
0.0
  0
VERTEX
  5
1F1
330
175
100
AcDbEntity
  8
LAY-1
  6
CONTINUOUS
 62
     3
100
AcDbVertex
100
AcDb2dVertex
 10
511.3509394096965
 20
126.6251354467062
 30
0.0
  0
VERTEX
  5
1F2
330
175
100
AcDbEntity
  8
LAY-1
  6
CONTINUOUS
 62
     3
100
AcDbVertex
100
AcDb2dVertex
 10
511.228412246562
 20
126.5347329717785
 30
0.0
  0
VERTEX
  5
1F3
330
175
100
AcDbEntity
  8
LAY-1
  6
CONTINUOUS
 62
     3
100
AcDbVertex
100
AcDb2dVertex
 10
511.1086700096026
 20
126.4428016191786
 30
0.0
  0
VERTEX
  5
1F4
330
175
100
AcDbEntity
  8
LAY-1
  6
CONTINUOUS
 62
     3
100
AcDbVertex
100
AcDb2dVertex
 10
510.9917588607075
 20
126.3493768296391
 30
0.0
  0
VERTEX
  5
1F5
330
175
100
AcDbEntity
  8
LAY-1
  6
CONTINUOUS
 62
     3
100
AcDbVertex
100
AcDb2dVertex
 10
510.8777238703615
 20
126.2544946196152
 30
0.0
  0
VERTEX
  5
1F6
330
175
100
AcDbEntity
  8
LAY-1
  6
CONTINUOUS
 62
     3
100
AcDbVertex
100
AcDb2dVertex
 10
510.7666090002722
 20
126.1581915674008
 30
0.0
  0
VERTEX
  5
1F7
330
175
100
AcDbEntity
  8
LAY-1
  6
CONTINUOUS
 62
     3
100
AcDbVertex
100
AcDb2dVertex
 10
510.6584570864227
 20
126.0605047990284
 30
0.0
  0
VERTEX
  5
1F8
330
175
100
AcDbEntity
  8
LAY-1
  6
CONTINUOUS
 62
     3
100
AcDbVertex
100
AcDb2dVertex
 10
510.553309822559
 20
125.9614719739563
 30
0.0
  0
VERTEX
  5
1F9
330
175
100
AcDbEntity
  8
LAY-1
  6
CONTINUOUS
 62
     3
100
AcDbVertex
100
AcDb2dVertex
 10
510.4512077441177
 20
125.8611312705521
 30
0.0
  0
VERTEX
  5
1FA
330
175
100
AcDbEntity
  8
LAY-1
  6
CONTINUOUS
 62
     3
100
AcDbVertex
100
AcDb2dVertex
 10
510.3521902126006
 20
125.7595213713748
 30
0.0
  0
VERTEX
  5
1FB
330
175
100
AcDbEntity
  8
LAY-1
  6
CONTINUOUS
 62
     3
100
AcDbVertex
100
AcDb2dVertex
 10
510.2562954004005
 20
125.6566814482629
 30
0.0
  0
VERTEX
  5
1FC
330
175
100
AcDbEntity
  8
LAY-1
  6
CONTINUOUS
 62
     3
100
AcDbVertex
100
AcDb2dVertex
 10
510.1635602760862
 20
125.552651147234
 30
0.0
  0
VERTEX
  5
1FD
330
175
100
AcDbEntity
  8
LAY-1
  6
CONTINUOUS
 62
     3
100
AcDbVertex
100
AcDb2dVertex
 10
510.0740205901521
 20
125.4474705732022
 30
0.0
  0
VERTEX
  5
1FE
330
175
100
AcDbEntity
  8
LAY-1
  6
CONTINUOUS
 62
     3
100
AcDbVertex
100
AcDb2dVertex
 10
509.9877108612369
 20
125.3411802745172
 30
0.0
  0
VERTEX
  5
1FF
330
175
100
AcDbEntity
  8
LAY-1
  6
CONTINUOUS
 62
     3
100
AcDbVertex
100
AcDb2dVertex
 10
509.9046643628155
 20
125.2338212273341
 30
0.0
  0
VERTEX
  5
200
330
175
100
AcDbEntity
  8
LAY-1
  6
CONTINUOUS
 62
     3
100
AcDbVertex
100
AcDb2dVertex
 10
509.8249131103744
 20
125.125434819817
 30
0.0
  0
VERTEX
  5
201
330
175
100
AcDbEntity
  8
LAY-1
  6
CONTINUOUS
 62
     3
100
AcDbVertex
100
AcDb2dVertex
 10
509.7484878490681
 20
125.0160628361845
 30
0.0
  0
VERTEX
  5
202
330
175
100
AcDbEntity
  8
LAY-1
  6
CONTINUOUS
 62
     3
100
AcDbVertex
100
AcDb2dVertex
 10
509.6754180418677
 20
124.9057474406021
 30
0.0
  0
VERTEX
  5
203
330
175
100
AcDbEntity
  8
LAY-1
  6
CONTINUOUS
 62
     3
100
AcDbVertex
100
AcDb2dVertex
 10
509.6057318582036
 20
124.7945311609287
 30
0.0
  0
VERTEX
  5
204
330
175
100
AcDbEntity
  8
LAY-1
  6
CONTINUOUS
 62
     3
100
AcDbVertex
100
AcDb2dVertex
 10
509.5394561631053
 20
124.6824568723226
 30
0.0
  0
VERTEX
  5
205
330
175
100
AcDbEntity
  8
LAY-1
  6
CONTINUOUS
 62
     3
100
AcDbVertex
100
AcDb2dVertex
 10
509.4766165068453
 20
124.569567780713
 30
0.0
  0
VERTEX
  5
206
330
175
100
AcDbEntity
  8
LAY-1
  6
CONTINUOUS
 62
     3
100
AcDbVertex
100
AcDb2dVertex
 10
509.4172371150889
 20
124.4559074061455
 30
0.0
  0
VERTEX
  5
207
330
175
100
AcDbEntity
  8
LAY-1
  6
CONTINUOUS
 62
     3
100
AcDbVertex
100
AcDb2dVertex
 10
509.3613408795567
 20
124.3415195660046
 30
0.0
  0
VERTEX
  5
208
330
175
100
AcDbEntity
  8
LAY-1
  6
CONTINUOUS
 62
     3
100
AcDbVertex
100
AcDb2dVertex
 10
509.3089493491974
 20
124.2264483581237
 30
0.0
  0
VERTEX
  5
209
330
175
100
AcDbEntity
  8
LAY-1
  6
CONTINUOUS
 62
     3
100
AcDbVertex
100
AcDb2dVertex
 10
509.2600827218821
 20
124.1107381437845
 30
0.0
  0
VERTEX
  5
20A
330
175
100
AcDbEntity
  8
LAY-1
  6
CONTINUOUS
 62
     3
100
AcDbVertex
100
AcDb2dVertex
 10
509.2147598366173
 20
123.9944335306179
 30
0.0
  0
VERTEX
  5
20B
330
175
100
AcDbEntity
  8
LAY-1
  6
CONTINUOUS
 62
     3
100
AcDbVertex
100
AcDb2dVertex
 10
509.1729981662812
 20
123.8775793554066
 30
0.0
  0
VERTEX
  5
20C
330
175
100
AcDbEntity
  8
LAY-1
  6
CONTINUOUS
 62
     3
100
AcDbVertex
100
AcDb2dVertex
 10
509.1348138108895
 20
123.7602206668017
 30
0.0
  0
VERTEX
  5
20D
330
175
100
AcDbEntity
  8
LAY-1
  6
CONTINUOUS
 62
     3
100
AcDbVertex
100
AcDb2dVertex
 10
509.1002214913864
 20
123.6424027079574
 30
0.0
  0
VERTEX
  5
20E
330
175
100
AcDbEntity
  8
LAY-1
  6
CONTINUOUS
 62
     3
100
AcDbVertex
100
AcDb2dVertex
 10
509.06923454397
 20
123.5241708990893
 30
0.0
  0
VERTEX
  5
20F
330
175
100
AcDbEntity
  8
LAY-1
  6
CONTINUOUS
 62
     3
100
AcDbVertex
100
AcDb2dVertex
 10
509.0418649149508
 20
123.405570819966
 30
0.0
  0
VERTEX
  5
210
330
175
100
AcDbEntity
  8
LAY-1
  6
CONTINUOUS
 62
     3
100
AcDbVertex
100
AcDb2dVertex
 10
509.0181231561457
 20
123.2866481923381
 30
0.0
  0
VERTEX
  5
211
330
175
100
AcDbEntity
  8
LAY-1
  6
CONTINUOUS
 62
     3
100
AcDbVertex
100
AcDb2dVertex
 10
508.9980184208094
 20
123.1674488623133
 30
0.0
  0
VERTEX
  5
212
330
175
100
AcDbEntity
  8
LAY-1
  6
CONTINUOUS
 62
     3
100
AcDbVertex
100
AcDb2dVertex
 10
508.9815584601048
 20
123.0480187826828
 30
0.0
  0
VERTEX
  5
213
330
175
100
AcDbEntity
  8
LAY-1
  6
CONTINUOUS
 62
     3
100
AcDbVertex
100
AcDb2dVertex
 10
508.9687496201152
 20
122.9284039952074
 30
0.0
  0
VERTEX
  5
214
330
175
100
AcDbEntity
  8
LAY-1
  6
CONTINUOUS
 62
     3
100
AcDbVertex
100
AcDb2dVertex
 10
508.9595968393958
 20
122.8086506128676
 30
0.0
  0
VERTEX
  5
215
330
175
100
AcDbEntity
  8
LAY-1
  6
CONTINUOUS
 62
     3
100
AcDbVertex
100
AcDb2dVertex
 10
508.9541036470699
 20
122.688804802089
 30
0.0
  0
VERTEX
  5
216
330
175
100
AcDbEntity
  8
LAY-1
  6
CONTINUOUS
 62
     3
100
AcDbVertex
100
AcDb2dVertex
 10
508.9522721614676
 20
122.5689127649441
 30
0.0
  0
VERTEX
  5
217
330
175
100
AcDbEntity
  8
LAY-1
  6
CONTINUOUS
 62
     3
100
AcDbVertex
100
AcDb2dVertex
 10
508.954103089307
 20
122.4490207213427
 30
0.0
  0
VERTEX
  5
218
330
175
100
AcDbEntity
  8
LAY-1
  6
CONTINUOUS
 62
     3
100
AcDbVertex
100
AcDb2dVertex
 10
508.9595957254221
 20
122.3291748912136
 30
0.0
  0
VERTEX
  5
219
330
175
100
AcDbEntity
  8
LAY-1
  6
CONTINUOUS
 62
     3
100
AcDbVertex
100
AcDb2dVertex
 10
508.968747953033
 20
122.2094214766876
 30
0.0
  0
VERTEX
  5
21A
330
175
100
AcDbEntity
  8
LAY-1
  6
CONTINUOUS
 62
     3
100
AcDbVertex
100
AcDb2dVertex
 10
508.9815562445613
 20
122.0898066442865
 30
0.0
  0
VERTEX
  5
21B
330
175
100
AcDbEntity
  8
LAY-1
  6
CONTINUOUS
 62
     3
100
AcDbVertex
100
AcDb2dVertex
 10
508.9980156629878
 20
121.9703765071268
 30
0.0
  0
VERTEX
  5
21C
330
175
100
AcDbEntity
  8
LAY-1
  6
CONTINUOUS
 62
     3
100
AcDbVertex
100
AcDb2dVertex
 10
509.0181198637554
 20
121.8511771071421
 30
0.0
  0
VERTEX
  5
21D
330
175
100
AcDbEntity
  8
LAY-1
  6
CONTINUOUS
 62
     3
100
AcDbVertex
100
AcDb2dVertex
 10
509.0418610972137
 20
121.7322543973348
 30
0.0
  0
VERTEX
  5
21E
330
175
100
AcDbEntity
  8
LAY-1
  6
CONTINUOUS
 62
     3
100
AcDbVertex
100
AcDb2dVertex
 10
509.069230211605
 20
121.6136542240613
 30
0.0
  0
VERTEX
  5
21F
330
175
100
AcDbEntity
  8
LAY-1
  6
CONTINUOUS
 62
     3
100
AcDbVertex
100
AcDb2dVertex
 10
509.1002166565911
 20
121.4954223093586
 30
0.0
  0
VERTEX
  5
220
330
175
100
AcDbEntity
  8
LAY-1
  6
CONTINUOUS
 62
     3
100
AcDbVertex
100
AcDb2dVertex
 10
509.1348084873191
 20
121.3776042333173
 30
0.0
  0
VERTEX
  5
221
330
175
100
AcDbEntity
  8
LAY-1
  6
CONTINUOUS
 62
     3
100
AcDbVertex
100
AcDb2dVertex
 10
509.1729923690248
 20
121.260245416512
 30
0.0
  0
VERTEX
  5
222
330
175
100
AcDbEntity
  8
LAY-1
  6
CONTINUOUS
 62
     3
100
AcDbVertex
100
AcDb2dVertex
 10
509.2147535821722
 20
121.1433911024905
 30
0.0
  0
VERTEX
  5
223
330
175
100
AcDbEntity
  8
LAY-1
  6
CONTINUOUS
 62
     3
100
AcDbVertex
100
AcDb2dVertex
 10
509.2600760281259
 20
121.0270863403329
 30
0.0
  0
VERTEX
  5
224
330
175
100
AcDbEntity
  8
LAY-1
  6
CONTINUOUS
 62
     3
100
AcDbVertex
100
AcDb2dVertex
 10
509.3089422353562
 20
120.9113759672848
 30
0.0
  0
VERTEX
  5
225
330
175
100
AcDbEntity
  8
LAY-1
  6
CONTINUOUS
 62
     3
100
AcDbVertex
100
AcDb2dVertex
 10
509.3613333661731
 20
120.7963045914727
 30
0.0
  0
VERTEX
  5
226
330
175
100
AcDbEntity
  8
LAY-1
  6
CONTINUOUS
 62
     3
100
AcDbVertex
100
AcDb2dVertex
 10
509.4172292239862
 20
120.681916574707
 30
0.0
  0
VERTEX
  5
227
330
175
100
AcDbEntity
  8
LAY-1
  6
CONTINUOUS
 62
     3
100
AcDbVertex
100
AcDb2dVertex
 10
509.4766082610896
 20
120.5682560153805
 30
0.0
  0
VERTEX
  5
228
330
175
100
AcDbEntity
  8
LAY-1
  6
CONTINUOUS
 62
     3
100
AcDbVertex
100
AcDb2dVertex
 10
509.5394475869664
 20
120.4553667314683
 30
0.0
  0
VERTEX
  5
229
330
175
100
AcDbEntity
  8
LAY-1
  6
CONTINUOUS
 62
     3
100
AcDbVertex
100
AcDb2dVertex
 10
509.6057229771124
 20
120.3432922436352
 30
0.0
  0
VERTEX
  5
22A
330
175
100
AcDbEntity
  8
LAY-1
  6
CONTINUOUS
 62
     3
100
AcDbVertex
100
AcDb2dVertex
 10
509.6754088823726
 20
120.2320757584588
 30
0.0
  0
VERTEX
  5
22B
330
175
100
AcDbEntity
  8
LAY-1
  6
CONTINUOUS
 62
     3
100
AcDbVertex
100
AcDb2dVertex
 10
509.7484784387892
 20
120.1217601517723
 30
0.0
  0
VERTEX
  5
22C
330
175
100
AcDbEntity
  8
LAY-1
  6
CONTINUOUS
 62
     3
100
AcDbVertex
100
AcDb2dVertex
 10
509.8249034779562
 20
120.0123879521357
 30
0.0
  0
VERTEX
  5
22D
330
175
100
AcDbEntity
  8
LAY-1
  6
CONTINUOUS
 62
     3
100
AcDbVertex
100
AcDb2dVertex
 10
509.9046545378761
 20
119.904001324441
 30
0.0
  0
VERTEX
  5
22E
330
175
100
AcDbEntity
  8
LAY-1
  6
CONTINUOUS
 62
     3
100
AcDbVertex
100
AcDb2dVertex
 10
509.9877008743172
 20
119.7966420536561
 30
0.0
  0
VERTEX
  5
22F
330
175
100
AcDbEntity
  8
LAY-1
  6
CONTINUOUS
 62
     3
100
AcDbVertex
100
AcDb2dVertex
 10
510.0740104726634
 20
119.6903515287167
 30
0.0
  0
VERTEX
  5
230
330
175
100
AcDbEntity
  8
LAY-1
  6
CONTINUOUS
 62
     3
100
AcDbVertex
100
AcDb2dVertex
 10
510.1635500602545
 20
119.5851707265708
 30
0.0
  0
VERTEX
  5
231
330
175
100
AcDbEntity
  8
LAY-1
  6
CONTINUOUS
 62
     3
100
AcDbVertex
100
AcDb2dVertex
 10
510.2562851192114
 20
119.4811401963802
 30
0.0
  0
VERTEX
  5
232
330
175
100
AcDbEntity
  8
LAY-1
  6
CONTINUOUS
 62
     3
100
AcDbVertex
100
AcDb2dVertex
 10
510.352179899741
 20
119.378300043889
 30
0.0
  0
VERTEX
  5
233
330
175
100
AcDbEntity
  8
LAY-1
  6
CONTINUOUS
 62
     3
100
AcDbVertex
100
AcDb2dVertex
 10
510.4511974339176
 20
119.2766899159617
 30
0.0
  0
VERTEX
  5
234
330
175
100
AcDbEntity
  8
LAY-1
  6
CONTINUOUS
 62
     3
100
AcDbVertex
100
AcDb2dVertex
 10
510.5532995499308
 20
119.1763489852988
 30
0.0
  0
VERTEX
  5
235
330
175
100
AcDbEntity
  8
LAY-1
  6
CONTINUOUS
 62
     3
100
AcDbVertex
100
AcDb2dVertex
 10
510.6584468868006
 20
119.0773159353346
 30
0.0
  0
VERTEX
  5
236
330
175
100
AcDbEntity
  8
LAY-1
  6
CONTINUOUS
 62
     3
100
AcDbVertex
100
AcDb2dVertex
 10
510.7665989095501
 20
118.9796289453239
 30
0.0
  0
VERTEX
  5
237
330
175
100
AcDbEntity
  8
LAY-1
  6
CONTINUOUS
 62
     3
100
AcDbVertex
100
AcDb2dVertex
 10
510.8777139248294
 20
118.8833256756233
 30
0.0
  0
VERTEX
  5
238
330
175
100
AcDbEntity
  8
LAY-1
  6
CONTINUOUS
 62
     3
100
AcDbVertex
100
AcDb2dVertex
 10
510.9917490969877
 20
118.7884432531714
 30
0.0
  0
VERTEX
  5
239
330
175
100
AcDbEntity
  8
LAY-1
  6
CONTINUOUS
 62
     3
100
AcDbVertex
100
AcDb2dVertex
 10
511.1086604645853
 20
118.6950182571766
 30
0.0
  0
VERTEX
  5
23A
330
175
100
AcDbEntity
  8
LAY-1
  6
CONTINUOUS
 62
     3
100
AcDbVertex
100
AcDb2dVertex
 10
511.2284029573393
 20
118.6030867050133
 30
0.0
  0
VERTEX
  5
23B
330
175
100
AcDbEntity
  8
LAY-1
  6
CONTINUOUS
 62
     3
100
AcDbVertex
100
AcDb2dVertex
 10
511.3509304134974
 20
118.5126840383372
 30
0.0
  0
VERTEX
  5
23C
330
175
100
AcDbEntity
  8
LAY-1
  6
CONTINUOUS
 62
     3
100
AcDbVertex
100
AcDb2dVertex
 10
511.4761955976328
 20
118.4238451094214
 30
0.0
  0
VERTEX
  5
23D
330
175
100
AcDbEntity
  8
LAY-1
  6
CONTINUOUS
 62
     3
100
AcDbVertex
100
AcDb2dVertex
 10
511.6041502188501
 20
118.3366041677186
 30
0.0
  0
VERTEX
  5
23E
330
175
100
AcDbEntity
  8
LAY-1
  6
CONTINUOUS
 62
     3
100
AcDbVertex
100
AcDb2dVertex
 10
511.7347449494034
 20
118.250994846658
 30
0.0
  0
VERTEX
  5
23F
330
175
100
AcDbEntity
  8
LAY-1
  6
CONTINUOUS
 62
     3
100
AcDbVertex
100
AcDb2dVertex
 10
511.8679294437097
 20
118.1670501506779
 30
0.0
  0
VERTEX
  5
240
330
175
100
AcDbEntity
  8
LAY-1
  6
CONTINUOUS
 62
     3
100
AcDbVertex
100
AcDb2dVertex
 10
512.0036523577562
 20
118.0848024425007
 30
0.0
  0
VERTEX
  5
241
330
175
100
AcDbEntity
  8
LAY-1
  6
CONTINUOUS
 62
     3
100
AcDbVertex
100
AcDb2dVertex
 10
512.141861368893
 20
118.0042834306568
 30
0.0
  0
VERTEX
  5
242
330
175
100
AcDbEntity
  8
LAY-1
  6
CONTINUOUS
 62
     3
100
AcDbVertex
100
AcDb2dVertex
 10
512.2825031960031
 20
117.925524157259
 30
0.0
  0
VERTEX
  5
243
330
175
100
AcDbEntity
  8
LAY-1
  6
CONTINUOUS
 62
     3
100
AcDbVertex
100
AcDb2dVertex
 10
512.4255236200405
 20
117.8485549860341
 30
0.0
  0
VERTEX
  5
244
330
175
100
AcDbEntity
  8
LAY-1
  6
CONTINUOUS
 62
     3
100
AcDbVertex
100
AcDb2dVertex
 10
512.5708675049325
 20
117.7734055906171
 30
0.0
  0
VERTEX
  5
245
330
175
100
AcDbEntity
  8
LAY-1
  6
CONTINUOUS
 62
     3
100
AcDbVertex
100
AcDb2dVertex
 10
512.7184788188326
 20
117.7001049431099
 30
0.0
  0
VERTEX
  5
246
330
175
100
AcDbEntity
  8
LAY-1
  6
CONTINUOUS
 62
     3
100
AcDbVertex
100
AcDb2dVertex
 10
512.8683006557224
 20
117.6286813029116
 30
0.0
  0
VERTEX
  5
247
330
175
100
AcDbEntity
  8
LAY-1
  6
CONTINUOUS
 62
     3
100
AcDbVertex
100
AcDb2dVertex
 10
513.0202752573451
 20
117.5591622058226
 30
0.0
  0
VERTEX
  5
248
330
175
100
AcDbEntity
  8
LAY-1
  6
CONTINUOUS
 62
     3
100
AcDbVertex
100
AcDb2dVertex
 10
513.1743440354751
 20
117.4915744534284
 30
0.0
  0
VERTEX
  5
249
330
175
100
AcDbEntity
  8
LAY-1
  6
CONTINUOUS
 62
     3
100
AcDbVertex
100
AcDb2dVertex
 10
513.3304475945005
 20
117.425944102766
 30
0.0
  0
VERTEX
  5
24A
330
175
100
AcDbEntity
  8
LAY-1
  6
CONTINUOUS
 62
     3
100
AcDbVertex
100
AcDb2dVertex
 10
513.4885257543208
 20
117.3622964562771
 30
0.0
  0
VERTEX
  5
24B
330
175
100
AcDbEntity
  8
LAY-1
  6
CONTINUOUS
 62
     3
100
AcDbVertex
100
AcDb2dVertex
 10
513.6485175735472
 20
117.3006560520529
 30
0.0
  0
VERTEX
  5
24C
330
175
100
AcDbEntity
  8
LAY-1
  6
CONTINUOUS
 62
     3
100
AcDbVertex
100
AcDb2dVertex
 10
513.8103613729942
 20
117.241046654373
 30
0.0
  0
VERTEX
  5
24D
330
175
100
AcDbEntity
  8
LAY-1
  6
CONTINUOUS
 62
     3
100
AcDbVertex
100
AcDb2dVertex
 10
513.9739947594576
 20
117.1834912445422
 30
0.0
  0
VERTEX
  5
24E
330
175
100
AcDbEntity
  8
LAY-1
  6
CONTINUOUS
 62
     3
100
AcDbVertex
100
AcDb2dVertex
 10
514.1393546497668
 20
117.1280120120301
 30
0.0
  0
VERTEX
  5
24F
330
175
100
AcDbEntity
  8
LAY-1
  6
CONTINUOUS
 62
     3
100
AcDbVertex
100
AcDb2dVertex
 10
514.3063772951048
 20
117.0746303459158
 30
0.0
  0
VERTEX
  5
250
330
175
100
AcDbEntity
  8
LAY-1
  6
CONTINUOUS
 62
     3
100
AcDbVertex
100
AcDb2dVertex
 10
514.4749983055823
 20
117.0233668266397
 30
0.0
  0
VERTEX
  5
251
330
175
100
AcDbEntity
  8
LAY-1
  6
CONTINUOUS
 62
     3
100
AcDbVertex
100
AcDb2dVertex
 10
514.6451526750609
 20
116.9742412180693
 30
0.0
  0
VERTEX
  5
252
330
175
100
AcDbEntity
  8
LAY-1
  6
CONTINUOUS
 62
     3
100
AcDbVertex
100
AcDb2dVertex
 10
514.8167748062142
 20
116.9272724598778
 30
0.0
  0
VERTEX
  5
253
330
175
100
AcDbEntity
  8
LAY-1
  6
CONTINUOUS
 62
     3
100
AcDbVertex
100
AcDb2dVertex
 10
514.9897985358151
 20
116.8824786602416
 30
0.0
  0
VERTEX
  5
254
330
175
100
AcDbEntity
  8
LAY-1
  6
CONTINUOUS
 62
     3
100
AcDbVertex
100
AcDb2dVertex
 10
515.1641571602432
 20
116.8398770888581
 30
0.0
  0
VERTEX
  5
255
330
175
100
AcDbEntity
  8
LAY-1
  6
CONTINUOUS
 62
     3
100
AcDbVertex
100
AcDb2dVertex
 10
515.339783461199
 20
116.7994841702862
 30
0.0
  0
VERTEX
  5
256
330
175
100
AcDbEntity
  8
LAY-1
  6
CONTINUOUS
 62
     3
100
AcDbVertex
100
AcDb2dVertex
 10
515.5166097316185
 20
116.7613154776133
 30
0.0
  0
VERTEX
  5
257
330
175
100
AcDbEntity
  8
LAY-1
  6
CONTINUOUS
 62
     3
100
AcDbVertex
100
AcDb2dVertex
 10
515.6945678017743
 20
116.7253857264503
 30
0.0
  0
VERTEX
  5
258
330
175
100
AcDbEntity
  8
LAY-1
  6
CONTINUOUS
 62
     3
100
AcDbVertex
100
AcDb2dVertex
 10
515.8735890655562
 20
116.691708769257
 30
0.0
  0
VERTEX
  5
259
330
175
100
AcDbEntity
  8
LAY-1
  6
CONTINUOUS
 62
     3
100
AcDbVertex
100
AcDb2dVertex
 10
516.0536045069209
 20
116.6602975900005
 30
0.0
  0
VERTEX
  5
25A
330
175
100
AcDbEntity
  8
LAY-1
  6
CONTINUOUS
 62
     3
100
AcDbVertex
100
AcDb2dVertex
 10
516.2345447264977
 20
116.6311642991483
 30
0.0
  0
VERTEX
  5
25B
330
175
100
AcDbEntity
  8
LAY-1
  6
CONTINUOUS
 62
     3
100
AcDbVertex
100
AcDb2dVertex
 10
516.4163399683437
 20
116.6043201289978
 30
0.0
  0
VERTEX
  5
25C
330
175
100
AcDbEntity
  8
LAY-1
  6
CONTINUOUS
 62
     3
100
AcDbVertex
100
AcDb2dVertex
 10
516.5989201468363
 20
116.5797754293454
 30
0.0
  0
VERTEX
  5
25D
330
175
100
AcDbEntity
  8
LAY-1
  6
CONTINUOUS
 62
     3
100
AcDbVertex
100
AcDb2dVertex
 10
516.782214873693
 20
116.5575396634947
 30
0.0
  0
VERTEX
  5
25E
330
175
100
AcDbEntity
  8
LAY-1
  6
CONTINUOUS
 62
     3
100
AcDbVertex
100
AcDb2dVertex
 10
516.9661534851062
 20
116.5376214046067
 30
0.0
  0
VERTEX
  5
25F
330
175
100
AcDbEntity
  8
LAY-1
  6
CONTINUOUS
 62
     3
100
AcDbVertex
100
AcDb2dVertex
 10
517.1506650689879
 20
116.5200283323941
 30
0.0
  0
VERTEX
  5
260
330
175
100
AcDbEntity
  8
LAY-1
  6
CONTINUOUS
 62
     3
100
AcDbVertex
100
AcDb2dVertex
 10
517.3356784923063
 20
116.5047672301583
 30
0.0
  0
VERTEX
  5
261
330
175
100
AcDbEntity
  8
LAY-1
  6
CONTINUOUS
 62
     3
100
AcDbVertex
100
AcDb2dVertex
 10
517.5211224285101
 20
116.491843982174
 30
0.0
  0
VERTEX
  5
262
330
175
100
AcDbEntity
  8
LAY-1
  6
CONTINUOUS
 62
     3
100
AcDbVertex
100
AcDb2dVertex
 10
517.7069253850267
 20
116.4812635714189
 30
0.0
  0
VERTEX
  5
263
330
175
100
AcDbEntity
  8
LAY-1
  6
CONTINUOUS
 62
     3
100
AcDbVertex
100
AcDb2dVertex
 10
517.8930157308251
 20
116.4730300776514
 30
0.0
  0
VERTEX
  5
264
330
175
100
AcDbEntity
  8
LAY-1
  6
CONTINUOUS
 62
     3
100
AcDbVertex
100
AcDb2dVertex
 10
518.0793217240301
 20
116.4671466758365
 30
0.0
  0
VERTEX
  5
265
330
175
100
AcDbEntity
  8
LAY-1
  6
CONTINUOUS
 62
     3
100
AcDbVertex
100
AcDb2dVertex
 10
518.2657715395833
 20
116.463615634921
 30
0.0
  0
VERTEX
  5
266
330
175
100
AcDbEntity
  8
LAY-1
  6
CONTINUOUS
 62
     3
100
AcDbVertex
100
AcDb2dVertex
 10
518.4522932969319
 20
116.4624383169572
 30
0.0
  0
VERTEX
  5
267
330
175
100
AcDbEntity
  8
LAY-1
  6
CONTINUOUS
 62
     3
100
AcDbVertex
100
AcDb2dVertex
 10
518.6388150877416
 20
116.4636151765764
 30
0.0
  0
VERTEX
  5
268
330
175
100
AcDbEntity
  8
LAY-1
  6
CONTINUOUS
 62
     3
100
AcDbVertex
100
AcDb2dVertex
 10
518.8252650036201
 20
116.467145760813
 30
0.0
  0
VERTEX
  5
269
330
175
100
AcDbEntity
  8
LAY-1
  6
CONTINUOUS
 62
     3
100
AcDbVertex
100
AcDb2dVertex
 10
519.01157116384
 20
116.4730287092778
 30
0.0
  0
VERTEX
  5
26A
330
175
100
AcDbEntity
  8
LAY-1
  6
CONTINUOUS
 62
     3
100
AcDbVertex
100
AcDb2dVertex
 10
519.1976617430503
 20
116.4812617546809
 30
0.0
  0
VERTEX
  5
26B
330
175
100
AcDbEntity
  8
LAY-1
  6
CONTINUOUS
 62
     3
100
AcDbVertex
100
AcDb2dVertex
 10
519.3834649989693
 20
116.4918417237056
 30
0.0
  0
VERTEX
  5
26C
330
175
100
AcDbEntity
  8
LAY-1
  6
CONTINUOUS
 62
     3
100
AcDbVertex
100
AcDb2dVertex
 10
519.568909300043
 20
116.5047645382298
 30
0.0
  0
VERTEX
  5
26D
330
175
100
AcDbEntity
  8
LAY-1
  6
CONTINUOUS
 62
     3
100
AcDbVertex
100
AcDb2dVertex
 10
519.7539231530614
 20
116.5200252168979
 30
0.0
  0
VERTEX
  5
26E
330
175
100
AcDbEntity
  8
LAY-1
  6
CONTINUOUS
 62
     3
100
AcDbVertex
100
AcDb2dVertex
 10
519.9384352307223
 20
116.5376178770396
 30
0.0
  0
VERTEX
  5
26F
330
175
100
AcDbEntity
  8
LAY-1
  6
CONTINUOUS
 62
     3
100
AcDbVertex
100
AcDb2dVertex
 10
520.1223743991313
 20
116.5575357369377
 30
0.0
  0
VERTEX
  5
270
330
175
100
AcDbEntity
  8
LAY-1
  6
CONTINUOUS
 62
     3
100
AcDbVertex
100
AcDb2dVertex
 10
520.3056697452262
 20
116.5797711184404
 30
0.0
  0
VERTEX
  5
271
330
175
100
AcDbEntity
  8
LAY-1
  6
CONTINUOUS
 62
     3
100
AcDbVertex
100
AcDb2dVertex
 10
520.4882506041165
 20
116.6043154499218
 30
0.0
  0
VERTEX
  5
272
330
175
100
AcDbEntity
  8
LAY-1
  6
CONTINUOUS
 62
     3
100
AcDbVertex
100
AcDb2dVertex
 10
520.6700465863283
 20
116.6311592695851
 30
0.0
  0
VERTEX
  5
273
330
175
100
AcDbEntity
  8
LAY-1
  6
CONTINUOUS
 62
     3
100
AcDbVertex
100
AcDb2dVertex
 10
520.8509876049428
 20
116.6602922291089
 30
0.0
  0
VERTEX
  5
274
330
175
100
AcDbEntity
  8
LAY-1
  6
CONTINUOUS
 62
     3
100
AcDbVertex
100
AcDb2dVertex
 10
521.0310039026165
 20
116.6917030976371
 30
0.0
  0
VERTEX
  5
275
330
175
100
AcDbEntity
  8
LAY-1
  6
CONTINUOUS
 62
     3
100
AcDbVertex
100
AcDb2dVertex
 10
521.2100260784773
 20
116.7253797661069
 30
0.0
  0
VERTEX
  5
276
330
175
100
AcDbEntity
  8
LAY-1
  6
CONTINUOUS
 62
     3
100
AcDbVertex
100
AcDb2dVertex
 10
521.3879851148803
 20
116.7613092519168
 30
0.0
  0
VERTEX
  5
277
330
175
100
AcDbEntity
  8
LAY-1
  6
CONTINUOUS
 62
     3
100
AcDbVertex
100
AcDb2dVertex
 10
521.5648124040184
 20
116.7994777039315
 30
0.0
  0
VERTEX
  5
278
330
175
100
AcDbEntity
  8
LAY-1
  6
CONTINUOUS
 62
     3
100
AcDbVertex
100
AcDb2dVertex
 10
521.7404397743727
 20
116.8398704078202
 30
0.0
  0
VERTEX
  5
279
330
175
100
AcDbEntity
  8
LAY-1
  6
CONTINUOUS
 62
     3
100
AcDbVertex
100
AcDb2dVertex
 10
521.9147995169972
 20
116.8824717917298
 30
0.0
  0
VERTEX
  5
27A
330
175
100
AcDbEntity
  8
LAY-1
  6
CONTINUOUS
 62
     3
100
AcDbVertex
100
AcDb2dVertex
 10
522.0878244116221
 20
116.9272654322867
 30
0.0
  0
VERTEX
  5
27B
330
175
100
AcDbEntity
  8
LAY-1
  6
CONTINUOUS
 62
     3
100
AcDbVertex
100
AcDb2dVertex
 10
522.2594477525718
 20
116.9742340609288
 30
0.0
  0
VERTEX
  5
27C
330
175
100
AcDbEntity
  8
LAY-1
  6
CONTINUOUS
 62
     3
100
AcDbVertex
100
AcDb2dVertex
 10
522.4296033744824
 20
117.0233595705617
 30
0.0
  0
VERTEX
  5
27D
330
175
100
AcDbEntity
  8
LAY-1
  6
CONTINUOUS
 62
     3
100
AcDbVertex
100
AcDb2dVertex
 10
522.5982256778126
 20
117.0746230225396
 30
0.0
  0
VERTEX
  5
27E
330
175
100
AcDbEntity
  8
LAY-1
  6
CONTINUOUS
 62
     3
100
AcDbVertex
100
AcDb2dVertex
 10
522.7652496541345
 20
117.1280046539663
 30
0.0
  0
VERTEX
  5
27F
330
175
100
AcDbEntity
  8
LAY-1
  6
CONTINUOUS
 62
     3
100
AcDbVertex
100
AcDb2dVertex
 10
522.9306109111984
 20
117.183483885313
 30
0.0
  0
VERTEX
  5
280
330
175
100
AcDbEntity
  8
LAY-1
  6
CONTINUOUS
 62
     3
100
AcDbVertex
100
AcDb2dVertex
 10
523.0942456977588
 20
117.2410393283534
 30
0.0
  0
VERTEX
  5
281
330
175
100
AcDbEntity
  8
LAY-1
  6
CONTINUOUS
 62
     3
100
AcDbVertex
100
AcDb2dVertex
 10
523.2560909281545
 20
117.3006487944077
 30
0.0
  0
VERTEX
  5
282
330
175
100
AcDbEntity
  8
LAY-1
  6
CONTINUOUS
 62
     3
100
AcDbVertex
100
AcDb2dVertex
 10
523.41608420663
 20
117.3622893028976
 30
0.0
  0
VERTEX
  5
283
330
175
100
AcDbEntity
  8
LAY-1
  6
CONTINUOUS
 62
     3
100
AcDbVertex
100
AcDb2dVertex
 10
523.5741638513945
 20
117.4259370902058
 30
0.0
  0
VERTEX
  5
284
330
175
100
AcDbEntity
  8
LAY-1
  6
CONTINUOUS
 62
     3
100
AcDbVertex
100
AcDb2dVertex
 10
523.7302689184008
 20
117.4915676188367
 30
0.0
  0
VERTEX
  5
285
330
175
100
AcDbEntity
  8
LAY-1
  6
CONTINUOUS
 62
     3
100
AcDbVertex
100
AcDb2dVertex
 10
523.8843392248448
 20
117.5591555868768
 30
0.0
  0
VERTEX
  5
286
330
175
100
AcDbEntity
  8
LAY-1
  6
CONTINUOUS
 62
     3
100
AcDbVertex
100
AcDb2dVertex
 10
524.0363153723677
 20
117.6286749377489
 30
0.0
  0
VERTEX
  5
287
330
175
100
AcDbEntity
  8
LAY-1
  6
CONTINUOUS
 62
     3
100
AcDbVertex
100
AcDb2dVertex
 10
524.1861387699579
 20
117.7000988702576
 30
0.0
  0
VERTEX
  5
288
330
175
100
AcDbEntity
  8
LAY-1
  6
CONTINUOUS
 62
     3
100
AcDbVertex
100
AcDb2dVertex
 10
524.3337516565409
 20
117.7733998489219
 30
0.0
  0
VERTEX
  5
289
330
175
100
AcDbEntity
  8
LAY-1
  6
CONTINUOUS
 62
     3
100
AcDbVertex
100
AcDb2dVertex
 10
524.479097123249
 20
117.8485496145915
 30
0.0
  0
VERTEX
  5
28A
330
175
100
AcDbEntity
  8
LAY-1
  6
CONTINUOUS
 62
     3
100
AcDbVertex
100
AcDb2dVertex
 10
524.6221191353628
 20
117.9255191953407
 30
0.0
  0
VERTEX
  5
28B
330
175
100
AcDbEntity
  8
LAY-1
  6
CONTINUOUS
 62
     3
100
AcDbVertex
100
AcDb2dVertex
 10
524.7627625539162
 20
118.0042789176384
 30
0.0
  0
VERTEX
  5
28C
330
175
100
AcDbEntity
  8
LAY-1
  6
CONTINUOUS
 62
     3
100
AcDbVertex
100
AcDb2dVertex
 10
524.9009731569549
 20
118.0847984177889
 30
0.0
  0
VERTEX
  5
28D
330
175
100
AcDbEntity
  8
LAY-1
  6
CONTINUOUS
 62
     3
100
AcDbVertex
100
AcDb2dVertex
 10
525.0366976604415
 20
118.167046653637
 30
0.0
  0
VERTEX
  5
28E
330
175
100
AcDbEntity
  8
LAY-1
  6
CONTINUOUS
 62
     3
100
AcDbVertex
100
AcDb2dVertex
 10
525.1698837388005
 20
118.2509919165369
 30
0.0
  0
VERTEX
  5
28F
330
175
100
AcDbEntity
  8
LAY-1
  6
CONTINUOUS
 62
     3
100
AcDbVertex
100
AcDb2dVertex
 10
525.3004800450923
 20
118.3366018435764
 30
0.0
  0
VERTEX
  5
290
330
175
100
AcDbEntity
  8
LAY-1
  6
CONTINUOUS
 62
     3
100
AcDbVertex
100
AcDb2dVertex
 10
525.4284362308093
 20
118.4238434300546
 30
0.0
  0
VERTEX
  5
291
330
175
100
AcDbEntity
  8
LAY-1
  6
CONTINUOUS
 62
     3
100
AcDbVertex
100
AcDb2dVertex
 10
525.5537029652888
 20
118.512683042206
 30
0.0
  0
VERTEX
  5
292
330
175
100
AcDbEntity
  8
LAY-1
  6
CONTINUOUS
 62
     3
100
AcDbVertex
100
AcDb2dVertex
 10
525.676231954733
 20
118.6030864301683
 30
0.0
  0
VERTEX
  5
293
330
175
100
AcDbEntity
  8
LAY-1
  6
CONTINUOUS
 62
     3
100
AcDbVertex
100
AcDb2dVertex
 10
525.7959759608277
 20
118.6950187411866
 30
0.0
  0
VERTEX
  5
294
330
175
100
AcDbEntity
  8
LAY-1
  6
CONTINUOUS
 62
     3
100
AcDbVertex
100
AcDb2dVertex
 10
525.9128888189565
 20
118.7884445330507
 30
0.0
  0
VERTEX
  5
295
330
175
100
AcDbEntity
  8
LAY-1
  6
CONTINUOUS
 62
     3
100
AcDbVertex
100
AcDb2dVertex
 10
526.0269254559984
 20
118.8833277877598
 30
0.0
  0
VERTEX
  5
296
330
175
100
AcDbEntity
  8
LAY-1
  6
CONTINUOUS
 62
     3
100
AcDbVertex
100
AcDb2dVertex
 10
526.1380419077071
 20
118.979631925409
 30
0.0
  0
VERTEX
  5
297
330
175
100
AcDbEntity
  8
LAY-1
  6
CONTINUOUS
 62
     3
100
AcDbVertex
100
AcDb2dVertex
 10
526.2461953356611
 20
119.0773198182927
 30
0.0
  0
VERTEX
  5
298
330
175
100
AcDbEntity
  8
LAY-1
  6
CONTINUOUS
 62
     3
100
AcDbVertex
100
AcDb2dVertex
 10
526.3513440437791
 20
119.1763538052181
 30
0.0
  0
VERTEX
  5
299
330
175
100
AcDbEntity
  8
LAY-1
  6
CONTINUOUS
 62
     3
100
AcDbVertex
100
AcDb2dVertex
 10
526.4534474943976
 20
119.2766957060262
 30
0.0
  0
VERTEX
  5
29A
330
175
100
AcDbEntity
  8
LAY-1
  6
CONTINUOUS
 62
     3
100
AcDbVertex
100
AcDb2dVertex
 10
526.5524663238994
 20
119.3783068363119
 30
0.0
  0
VERTEX
  5
29B
330
175
100
AcDbEntity
  8
LAY-1
  6
CONTINUOUS
 62
     3
100
AcDbVertex
100
AcDb2dVertex
 10
526.6483623578905
 20
119.4811480223385
 30
0.0
  0
VERTEX
  5
29C
330
175
100
AcDbEntity
  8
LAY-1
  6
CONTINUOUS
 62
     3
100
AcDbVertex
100
AcDb2dVertex
 10
526.7410986259173
 20
119.5851796161407
 30
0.0
  0
VERTEX
  5
29D
330
175
100
AcDbEntity
  8
LAY-1
  6
CONTINUOUS
 62
     3
100
AcDbVertex
100
AcDb2dVertex
 10
526.8306393757226
 20
119.6903615108114
 30
0.0
  0
VERTEX
  5
29E
330
175
100
AcDbEntity
  8
LAY-1
  6
CONTINUOUS
 62
     3
100
AcDbVertex
100
AcDb2dVertex
 10
526.9169500870273
 20
119.7966531559642
 30
0.0
  0
VERTEX
  5
29F
330
175
100
AcDbEntity
  8
LAY-1
  6
CONTINUOUS
 62
     3
100
AcDbVertex
100
AcDb2dVertex
 10
526.999997484841
 20
119.9040135733682
 30
0.0
  0
VERTEX
  5
2A0
330
175
100
AcDbEntity
  8
LAY-1
  6
CONTINUOUS
 62
     3
100
AcDbVertex
100
AcDb2dVertex
 10
527.0797495522912
 20
120.0124013727464
 30
0.0
  0
VERTEX
  5
2A1
330
175
100
AcDbEntity
  8
LAY-1
  6
CONTINUOUS
 62
     3
100
AcDbVertex
100
AcDb2dVertex
 10
527.1561755429666
 20
120.1217747677341
 30
0.0
  0
VERTEX
  5
2A2
330
175
100
AcDbEntity
  8
LAY-1
  6
CONTINUOUS
 62
     3
100
AcDbVertex
100
AcDb2dVertex
 10
527.229245992771
 20
120.2320915919894
 30
0.0
  0
VERTEX
  5
2A3
330
175
100
AcDbEntity
  8
LAY-1
  6
CONTINUOUS
 62
     3
100
AcDbVertex
100
AcDb2dVertex
 10
527.2989327312837
 20
120.3433093154505
 30
0.0
  0
VERTEX
  5
2A4
330
175
100
AcDbEntity
  8
LAY-1
  6
CONTINUOUS
 62
     3
100
AcDbVertex
100
AcDb2dVertex
 10
527.3652088926193
 20
120.4553850607331
 30
0.0
  0
VERTEX
  5
2A5
330
175
100
AcDbEntity
  8
LAY-1
  6
CONTINUOUS
 62
     3
100
AcDbVertex
100
AcDb2dVertex
 10
527.4280489257867
 20
120.5682756196618
 30
0.0
  0
VERTEX
  5
2A6
330
175
100
AcDbEntity
  8
LAY-1
  6
CONTINUOUS
 62
     3
100
AcDbVertex
100
AcDb2dVertex
 10
527.4874286045389
 20
120.6819374699286
 30
0.0
  0
VERTEX
  5
2A7
330
175
100
AcDbEntity
  8
LAY-1
  6
CONTINUOUS
 62
     3
100
AcDbVertex
100
AcDb2dVertex
 10
527.5433250367133
 20
120.7963267918733
 30
0.0
  0
VERTEX
  5
2A8
330
175
100
AcDbEntity
  8
LAY-1
  6
CONTINUOUS
 62
     3
100
AcDbVertex
100
AcDb2dVertex
 10
527.5957166730578
 20
120.9113994853781
 30
0.0
  0
VERTEX
  5
2A9
330
175
100
AcDbEntity
  8
LAY-1
  6
CONTINUOUS
 62
     3
100
AcDbVertex
100
AcDb2dVertex
 10
527.6445833155377
 20
121.0271111868699
 30
0.0
  0
VERTEX
  5
2AA
330
175
100
AcDbEntity
  8
LAY-1
  6
CONTINUOUS
 62
     3
100
AcDbVertex
100
AcDb2dVertex
 10
527.6899061251238
 20
121.1434172864256
 30
0.0
  0
VERTEX
  5
2AB
330
175
100
AcDbEntity
  8
LAY-1
  6
CONTINUOUS
 62
     3
100
AcDbVertex
100
AcDb2dVertex
 10
527.7316676290536
 20
121.26027294497
 30
0.0
  0
VERTEX
  5
2AC
330
175
100
AcDbEntity
  8
LAY-1
  6
CONTINUOUS
 62
     3
100
AcDbVertex
100
AcDb2dVertex
 10
527.7698517275687
 20
121.3776331115649
 30
0.0
  0
VERTEX
  5
2AD
330
175
100
AcDbEntity
  8
LAY-1
  6
CONTINUOUS
 62
     3
100
AcDbVertex
100
AcDb2dVertex
 10
527.8044437001207
 20
121.4954525407772
 30
0.0
  0
VERTEX
  5
2AE
330
175
100
AcDbEntity
  8
LAY-1
  6
CONTINUOUS
 62
     3
100
AcDbVertex
100
AcDb2dVertex
 10
527.8354302110467
 20
121.613685810124
 30
0.0
  0
VERTEX
  5
2AF
330
175
100
AcDbEntity
  8
LAY-1
  6
CONTINUOUS
 62
     3
100
AcDbVertex
100
AcDb2dVertex
 10
527.8627993147087
 20
121.732287337585
 30
0.0
  0
VERTEX
  5
2B0
330
175
100
AcDbEntity
  8
LAY-1
  6
CONTINUOUS
 62
     3
100
AcDbVertex
100
AcDb2dVertex
 10
527.8865404601005
 20
121.8512113991761
 30
0.0
  0
VERTEX
  5
2B1
330
175
100
AcDbEntity
  8
LAY-1
  6
CONTINUOUS
 62
     3
100
AcDbVertex
100
AcDb2dVertex
 10
527.906644494913
 20
121.9704121465787
 30
0.0
  0
VERTEX
  5
2B2
330
175
100
AcDbEntity
  8
LAY-1
  6
CONTINUOUS
 62
     3
100
AcDbVertex
100
AcDb2dVertex
 10
527.9231036690634
 20
122.0898436248158
 30
0.0
  0
VERTEX
  5
2B3
330
175
100
AcDbEntity
  8
LAY-1
  6
CONTINUOUS
 62
     3
100
AcDbVertex
100
AcDb2dVertex
 10
527.9359116376812
 20
122.2094597899708
 30
0.0
  0
VERTEX
  5
2B4
330
175
100
AcDbEntity
  8
LAY-1
  6
CONTINUOUS
 62
     3
100
AcDbVertex
100
AcDb2dVertex
 10
527.9450634635549
 20
122.329214526938
 30
0.0
  0
VERTEX
  5
2B5
330
175
100
AcDbEntity
  8
LAY-1
  6
CONTINUOUS
 62
     3
100
AcDbVertex
100
AcDb2dVertex
 10
527.9505556190334
 20
122.4490616672036
 30
0.0
  0
VERTEX
  5
2B6
330
175
100
AcDbEntity
  8
LAY-1
  6
CONTINUOUS
 62
     3
100
AcDbVertex
100
AcDb2dVertex
 10
527.9523859873855
 20
122.5689550066447
 30
0.0
  0
SEQEND
  5
2B7
330
175
100
AcDbEntity
  8
LAY-1
  6
CONTINUOUS
 62
     3
  0
LINE
  5
2B8
330
1F
100
AcDbEntity
  8
LAY-1
  6
CONTINUOUS
 62
     3
100
AcDbLine
 10
510.6954576116
 20
134.56493491147
 30
0.0
 11
507.85641398564
 21
127.75401063542
 31
0.0
  0
LINE
  5
2B9
330
1F
100
AcDbEntity
  8
LAY-1
  6
CONTINUOUS
 62
     3
100
AcDbLine
 10
510.6954576116
 20
134.56493491147
 30
0.0
 11
521.29146773205
 21
136.38986470328
 31
0.0
  0
LINE
  5
2BA
330
1F
100
AcDbEntity
  8
LAY-1
  6
CONTINUOUS
 62
     3
100
AcDbLine
 10
529.0482132075239
 20
131.4040442980157
 30
0.0
 11
521.2914677320701
 21
136.3898647032829
 31
0.0
  0
LINE
  5
2BB
330
1F
100
AcDbEntity
  8
LAY-1
  6
CONTINUOUS
 62
     3
100
AcDbLine
 10
507.85641398564
 20
127.75401063542
 30
0.0
 11
507.85641398564
 21
120.74393793643
 31
0.0
  0
LINE
  5
2BC
330
1F
100
AcDbEntity
  8
LAY-1
  6
CONTINUOUS
 62
     3
100
AcDbLine
 10
510.6954576116
 20
134.56493491147
 30
0.0
 11
510.6954576116
 21
127.55486221249
 31
0.0
  0
LINE
  5
2BD
330
1F
100
AcDbEntity
  8
LAY-1
  6
CONTINUOUS
 62
     3
100
AcDbLine
 10
521.29146773205
 20
129.3797920043
 30
0.0
 11
521.29146773205
 21
136.38986470328
 31
0.0
  0
LINE
  5
2BE
330
1F
100
AcDbEntity
  8
LAY-1
  6
CONTINUOUS
 62
     3
100
AcDbLine
 10
529.04821320752
 20
131.40404429802
 30
0.0
 11
529.04821320752
 21
124.39397159904
 31
0.0
  0
LINE
  5
2BF
330
1F
100
AcDbEntity
  8
LAY-1
  6
CONTINUOUS
 62
     3
100
AcDbLine
 10
618.1435611106667
 20
120.7439219286416
 30
0.0
 11
610.3868472084238
 21
115.7580023404
 31
0.0
  0
LINE
  5
2C0
330
1F
100
AcDbEntity
  8
LAY-1
  6
CONTINUOUS
 62
     3
100
AcDbLine
 10
596.9517867924961
 20
124.3939715990356
 30
0.0
 11
604.7085322679499
 21
129.3797920043028
 31
0.0
  0
LINE
  5
2C1
330
1F
100
AcDbEntity
  8
LAY-1
  6
CONTINUOUS
 62
     3
100
AcDbLine
 10
615.3045606180154
 20
127.5548184792681
 30
0.0
 11
604.7085322679499
 21
129.3797920043028
 31
0.0
  0
LINE
  5
2C2
330
1F
100
AcDbEntity
  8
LAY-1
  6
CONTINUOUS
 62
     3
100
AcDbLine
 10
615.3045606180154
 20
127.5548184792681
 30
0.0
 11
618.1436042440419
 21
120.7438942030424
 31
0.0
  0
LINE
  5
2C3
330
1F
100
AcDbEntity
  8
LAY-1
  6
CONTINUOUS
 62
     3
100
AcDbLine
 10
610.3868903421774
 20
115.7579746146604
 30
0.0
 11
599.7908198097749
 21
117.5829530389935
 31
0.0
  0
LINE
  5
2C4
330
1F
100
AcDbEntity
  8
LAY-1
  6
CONTINUOUS
 62
     3
100
AcDbLine
 10
599.7908954718221
 20
117.5830016730371
 30
0.0
 11
596.9517867924961
 21
124.3939715990356
 31
0.0
  0
POLYLINE
  5
2C5
330
1F
100
AcDbEntity
  8
LAY-1
  6
CONTINUOUS
 62
     3
100
AcDb2dPolyline
 66
     1
 10
0.0
 20
0.0
 30
0.0
 70
   128
  0
VERTEX
  5
2C6
330
2C5
100
AcDbEntity
  8
LAY-1
  6
CONTINUOUS
 62
     3
100
AcDbVertex
100
AcDb2dVertex
 10
598.0476140126145
 20
122.5689550066447
 30
0.0
  0
VERTEX
  5
2C7
330
2C5
100
AcDbEntity
  8
LAY-1
  6
CONTINUOUS
 62
     3
100
AcDbVertex
100
AcDb2dVertex
 10
598.0494461363843
 20
122.6888483233442
 30
0.0
  0
VERTEX
  5
2C8
330
2C5
100
AcDbEntity
  8
LAY-1
  6
CONTINUOUS
 62
     3
100
AcDbVertex
100
AcDb2dVertex
 10
598.0549400452661
 20
122.8086953954097
 30
0.0
  0
VERTEX
  5
2C9
330
2C5
100
AcDbEntity
  8
LAY-1
  6
CONTINUOUS
 62
     3
100
AcDbVertex
100
AcDb2dVertex
 10
598.0640936205175
 20
122.9284500187956
 30
0.0
  0
VERTEX
  5
2CA
330
2C5
100
AcDbEntity
  8
LAY-1
  6
CONTINUOUS
 62
     3
100
AcDbVertex
100
AcDb2dVertex
 10
598.0769033324816
 20
123.0480660251159
 30
0.0
  0
VERTEX
  5
2CB
330
2C5
100
AcDbEntity
  8
LAY-1
  6
CONTINUOUS
 62
     3
100
AcDbVertex
100
AcDb2dVertex
 10
598.0933642419494
 20
123.1674972994444
 30
0.0
  0
VERTEX
  5
2CC
330
2C5
100
AcDbEntity
  8
LAY-1
  6
CONTINUOUS
 62
     3
100
AcDbVertex
100
AcDb2dVertex
 10
598.1134700020649
 20
123.2866977980939
 30
0.0
  0
VERTEX
  5
2CD
330
2C5
100
AcDbEntity
  8
LAY-1
  6
CONTINUOUS
 62
     3
100
AcDbVertex
100
AcDb2dVertex
 10
598.1372128607732
 20
123.4056215663677
 30
0.0
  0
VERTEX
  5
2CE
330
2C5
100
AcDbEntity
  8
LAY-1
  6
CONTINUOUS
 62
     3
100
AcDbVertex
100
AcDb2dVertex
 10
598.1645836638104
 20
123.5242227562774
 30
0.0
  0
VERTEX
  5
2CF
330
2C5
100
AcDbEntity
  8
LAY-1
  6
CONTINUOUS
 62
     3
100
AcDbVertex
100
AcDb2dVertex
 10
598.1955718582343
 20
123.6424556442188
 30
0.0
  0
VERTEX
  5
2D0
330
2C5
100
AcDbEntity
  8
LAY-1
  6
CONTINUOUS
 62
     3
100
AcDbVertex
100
AcDb2dVertex
 10
598.2301654964949
 20
123.7602746486004
 30
0.0
  0
VERTEX
  5
2D1
330
2C5
100
AcDbEntity
  8
LAY-1
  6
CONTINUOUS
 62
     3
100
AcDbVertex
100
AcDb2dVertex
 10
598.268351241041
 20
123.877634347416
 30
0.0
  0
VERTEX
  5
2D2
330
2C5
100
AcDbEntity
  8
LAY-1
  6
CONTINUOUS
 62
     3
100
AcDbVertex
100
AcDb2dVertex
 10
598.310114369464
 20
123.9944894957579
 30
0.0
  0
VERTEX
  5
2D3
330
2C5
100
AcDbEntity
  8
LAY-1
  6
CONTINUOUS
 62
     3
100
AcDbVertex
100
AcDb2dVertex
 10
598.3554387801753
 20
124.1107950432597
 30
0.0
  0
VERTEX
  5
2D4
330
2C5
100
AcDbEntity
  8
LAY-1
  6
CONTINUOUS
 62
     3
100
AcDbVertex
100
AcDb2dVertex
 10
598.404306998616
 20
124.2265061514646
 30
0.0
  0
VERTEX
  5
2D5
330
2C5
100
AcDbEntity
  8
LAY-1
  6
CONTINUOUS
 62
     3
100
AcDbVertex
100
AcDb2dVertex
 10
598.4567001839943
 20
124.3415782111128
 30
0.0
  0
VERTEX
  5
2D6
330
2C5
100
AcDbEntity
  8
LAY-1
  6
CONTINUOUS
 62
     3
100
AcDbVertex
100
AcDb2dVertex
 10
598.5125981365522
 20
124.4559668593393
 30
0.0
  0
VERTEX
  5
2D7
330
2C5
100
AcDbEntity
  8
LAY-1
  6
CONTINUOUS
 62
     3
100
AcDbVertex
100
AcDb2dVertex
 10
598.5719793053537
 20
124.5696279967776
 30
0.0
  0
VERTEX
  5
2D8
330
2C5
100
AcDbEntity
  8
LAY-1
  6
CONTINUOUS
 62
     3
100
AcDbVertex
100
AcDb2dVertex
 10
598.6348207965955
 20
124.6825178045614
 30
0.0
  0
VERTEX
  5
2D9
330
2C5
100
AcDbEntity
  8
LAY-1
  6
CONTINUOUS
 62
     3
100
AcDbVertex
100
AcDb2dVertex
 10
598.701098382434
 20
124.7945927612179
 30
0.0
  0
VERTEX
  5
2DA
330
2C5
100
AcDbEntity
  8
LAY-1
  6
CONTINUOUS
 62
     3
100
AcDbVertex
100
AcDb2dVertex
 10
598.770786510329
 20
124.9058096594468
 30
0.0
  0
VERTEX
  5
2DB
330
2C5
100
AcDbEntity
  8
LAY-1
  6
CONTINUOUS
 62
     3
100
AcDbVertex
100
AcDb2dVertex
 10
598.8438583128953
 20
125.016125622778
 30
0.0
  0
VERTEX
  5
2DC
330
2C5
100
AcDbEntity
  8
LAY-1
  6
CONTINUOUS
 62
     3
100
AcDbVertex
100
AcDb2dVertex
 10
598.9202856182633
 20
125.1254981221012
 30
0.0
  0
VERTEX
  5
2DD
330
2C5
100
AcDbEntity
  8
LAY-1
  6
CONTINUOUS
 62
     3
100
AcDbVertex
100
AcDb2dVertex
 10
599.0000389609415
 20
125.233884992063
 30
0.0
  0
VERTEX
  5
2DE
330
2C5
100
AcDbEntity
  8
LAY-1
  6
CONTINUOUS
 62
     3
100
AcDbVertex
100
AcDb2dVertex
 10
599.0830875931783
 20
125.3412444473213
 30
0.0
  0
VERTEX
  5
2DF
330
2C5
100
AcDbEntity
  8
LAY-1
  6
CONTINUOUS
 62
     3
100
AcDbVertex
100
AcDb2dVertex
 10
599.1693994968178
 20
125.4475350986562
 30
0.0
  0
VERTEX
  5
2E0
330
2C5
100
AcDbEntity
  8
LAY-1
  6
CONTINUOUS
 62
     3
100
AcDbVertex
100
AcDb2dVertex
 10
599.258941395645
 20
125.5527159689249
 30
0.0
  0
VERTEX
  5
2E1
330
2C5
100
AcDbEntity
  8
LAY-1
  6
CONTINUOUS
 62
     3
100
AcDbVertex
100
AcDb2dVertex
 10
599.3516787682171
 20
125.6567465088604
 30
0.0
  0
VERTEX
  5
2E2
330
2C5
100
AcDbEntity
  8
LAY-1
  6
CONTINUOUS
 62
     3
100
AcDbVertex
100
AcDb2dVertex
 10
599.4475758611736
 20
125.7595866127037
 30
0.0
  0
VERTEX
  5
2E3
330
2C5
100
AcDbEntity
  8
LAY-1
  6
CONTINUOUS
 62
     3
100
AcDbVertex
100
AcDb2dVertex
 10
599.5465957030228
 20
125.8611966336651
 30
0.0
  0
VERTEX
  5
2E4
330
2C5
100
AcDbEntity
  8
LAY-1
  6
CONTINUOUS
 62
     3
100
AcDbVertex
100
AcDb2dVertex
 10
599.6487001183966
 20
125.9615373992093
 30
0.0
  0
VERTEX
  5
2E5
330
2C5
100
AcDbEntity
  8
LAY-1
  6
CONTINUOUS
 62
     3
100
AcDbVertex
100
AcDb2dVertex
 10
599.7538497427696
 20
126.0605702261564
 30
0.0
  0
VERTEX
  5
2E6
330
2C5
100
AcDbEntity
  8
LAY-1
  6
CONTINUOUS
 62
     3
100
AcDbVertex
100
AcDb2dVertex
 10
599.8620040376372
 20
126.1582569355957
 30
0.0
  0
VERTEX
  5
2E7
330
2C5
100
AcDbEntity
  8
LAY-1
  6
CONTINUOUS
 62
     3
100
AcDbVertex
100
AcDb2dVertex
 10
599.9731213061465
 20
126.254559867603
 30
0.0
  0
VERTEX
  5
2E8
330
2C5
100
AcDbEntity
  8
LAY-1
  6
CONTINUOUS
 62
     3
100
AcDbVertex
100
AcDb2dVertex
 10
600.0871587091721
 20
126.3494418957604
 30
0.0
  0
VERTEX
  5
2E9
330
2C5
100
AcDbEntity
  8
LAY-1
  6
CONTINUOUS
 62
     3
100
AcDbVertex
100
AcDb2dVertex
 10
600.2040722818343
 20
126.4428664414679
 30
0.0
  0
VERTEX
  5
2EA
330
2C5
100
AcDbEntity
  8
LAY-1
  6
CONTINUOUS
 62
     3
100
AcDbVertex
100
AcDb2dVertex
 10
600.3238169504508
 20
126.5347974880448
 30
0.0
  0
VERTEX
  5
2EB
330
2C5
100
AcDbEntity
  8
LAY-1
  6
CONTINUOUS
 62
     3
100
AcDbVertex
100
AcDb2dVertex
 10
600.4463465499143
 20
126.625199594615
 30
0.0
  0
VERTEX
  5
2EC
330
2C5
100
AcDbEntity
  8
LAY-1
  6
CONTINUOUS
 62
     3
100
AcDbVertex
100
AcDb2dVertex
 10
600.5716138414921
 20
126.7140379097697
 30
0.0
  0
VERTEX
  5
2ED
330
2C5
100
AcDbEntity
  8
LAY-1
  6
CONTINUOUS
 62
     3
100
AcDbVertex
100
AcDb2dVertex
 10
600.6995705310401
 20
126.801278185002
 30
0.0
  0
VERTEX
  5
2EE
330
2C5
100
AcDbEntity
  8
LAY-1
  6
CONTINUOUS
 62
     3
100
AcDbVertex
100
AcDb2dVertex
 10
600.8301672876235
 20
126.8868867879104
 30
0.0
  0
VERTEX
  5
2EF
330
2C5
100
AcDbEntity
  8
LAY-1
  6
CONTINUOUS
 62
     3
100
AcDbVertex
100
AcDb2dVertex
 10
600.9633537625344
 20
126.9708307151643
 30
0.0
  0
VERTEX
  5
2F0
330
2C5
100
AcDbEntity
  8
LAY-1
  6
CONTINUOUS
 62
     3
100
AcDbVertex
100
AcDb2dVertex
 10
601.0990786087066
 20
127.0530776052262
 30
0.0
  0
VERTEX
  5
2F1
330
2C5
100
AcDbEntity
  8
LAY-1
  6
CONTINUOUS
 62
     3
100
AcDbVertex
100
AcDb2dVertex
 10
601.2372895005112
 20
127.1335957508273
 30
0.0
  0
VERTEX
  5
2F2
330
2C5
100
AcDbEntity
  8
LAY-1
  6
CONTINUOUS
 62
     3
100
AcDbVertex
100
AcDb2dVertex
 10
601.3779331539307
 20
127.2123541111907
 30
0.0
  0
VERTEX
  5
2F3
330
2C5
100
AcDbEntity
  8
LAY-1
  6
CONTINUOUS
 62
     3
100
AcDbVertex
100
AcDb2dVertex
 10
601.5209553471036
 20
127.2893223239971
 30
0.0
  0
VERTEX
  5
2F4
330
2C5
100
AcDbEntity
  8
LAY-1
  6
CONTINUOUS
 62
     3
100
AcDbVertex
100
AcDb2dVertex
 10
601.666300941229
 20
127.3644707170895
 30
0.0
  0
VERTEX
  5
2F5
330
2C5
100
AcDbEntity
  8
LAY-1
  6
CONTINUOUS
 62
     3
100
AcDbVertex
100
AcDb2dVertex
 10
601.8139139018256
 20
127.4377703199115
 30
0.0
  0
VERTEX
  5
2F6
330
2C5
100
AcDbEntity
  8
LAY-1
  6
CONTINUOUS
 62
     3
100
AcDbVertex
100
AcDb2dVertex
 10
601.9637373203343
 20
127.5091928746749
 30
0.0
  0
VERTEX
  5
2F7
330
2C5
100
AcDbEntity
  8
LAY-1
  6
CONTINUOUS
 62
     3
100
AcDbVertex
100
AcDb2dVertex
 10
602.1157134360615
 20
127.5787108472528
 30
0.0
  0
VERTEX
  5
2F8
330
2C5
100
AcDbEntity
  8
LAY-1
  6
CONTINUOUS
 62
     3
100
AcDbVertex
100
AcDb2dVertex
 10
602.2697836584457
 20
127.6462974377937
 30
0.0
  0
VERTEX
  5
2F9
330
2C5
100
AcDbEntity
  8
LAY-1
  6
CONTINUOUS
 62
     3
100
AcDbVertex
100
AcDb2dVertex
 10
602.4258885896485
 20
127.7119265910521
 30
0.0
  0
VERTEX
  5
2FA
330
2C5
100
AcDbEntity
  8
LAY-1
  6
CONTINUOUS
 62
     3
100
AcDbVertex
100
AcDb2dVertex
 10
602.5839680474538
 20
127.7755730064325
 30
0.0
  0
VERTEX
  5
2FB
330
2C5
100
AcDbEntity
  8
LAY-1
  6
CONTINUOUS
 62
     3
100
AcDbVertex
100
AcDb2dVertex
 10
602.7439610884709
 20
127.837212147742
 30
0.0
  0
VERTEX
  5
2FC
330
2C5
100
AcDbEntity
  8
LAY-1
  6
CONTINUOUS
 62
     3
100
AcDbVertex
100
AcDb2dVertex
 10
602.9058060316305
 20
127.8968202526487
 30
0.0
  0
VERTEX
  5
2FD
330
2C5
100
AcDbEntity
  8
LAY-1
  6
CONTINUOUS
 62
     3
100
AcDbVertex
100
AcDb2dVertex
 10
603.069440481965
 20
127.9543743418407
 30
0.0
  0
VERTEX
  5
2FE
330
2C5
100
AcDbEntity
  8
LAY-1
  6
CONTINUOUS
 62
     3
100
AcDbVertex
100
AcDb2dVertex
 10
603.2348013546635
 20
128.0098522278848
 30
0.0
  0
VERTEX
  5
2FF
330
2C5
100
AcDbEntity
  8
LAY-1
  6
CONTINUOUS
 62
     3
100
AcDbVertex
100
AcDb2dVertex
 10
603.4018248993941
 20
128.0632325237783
 30
0.0
  0
VERTEX
  5
300
330
2C5
100
AcDbEntity
  8
LAY-1
  6
CONTINUOUS
 62
     3
100
AcDbVertex
100
AcDb2dVertex
 10
603.5704467248806
 20
128.1144946511934
 30
0.0
  0
VERTEX
  5
301
330
2C5
100
AcDbEntity
  8
LAY-1
  6
CONTINUOUS
 62
     3
100
AcDbVertex
100
AcDb2dVertex
 10
603.7406018237282
 20
128.1636188484087
 30
0.0
  0
VERTEX
  5
302
330
2C5
100
AcDbEntity
  8
LAY-1
  6
CONTINUOUS
 62
     3
100
AcDbVertex
100
AcDb2dVertex
 10
603.9122245974858
 20
128.2105861779273
 30
0.0
  0
VERTEX
  5
303
330
2C5
100
AcDbEntity
  8
LAY-1
  6
CONTINUOUS
 62
     3
100
AcDbVertex
100
AcDb2dVertex
 10
604.0852488819352
 20
128.2553785337756
 30
0.0
  0
VERTEX
  5
304
330
2C5
100
AcDbEntity
  8
LAY-1
  6
CONTINUOUS
 62
     3
100
AcDbVertex
100
AcDb2dVertex
 10
604.2596079726005
 20
128.2979786484827
 30
0.0
  0
VERTEX
  5
305
330
2C5
100
AcDbEntity
  8
LAY-1
  6
CONTINUOUS
 62
     3
100
AcDbVertex
100
AcDb2dVertex
 10
604.4352346504636
 20
128.3383700997354
 30
0.0
  0
VERTEX
  5
306
330
2C5
100
AcDbEntity
  8
LAY-1
  6
CONTINUOUS
 62
     3
100
AcDbVertex
100
AcDb2dVertex
 10
604.6120612078789
 20
128.3765373167091
 30
0.0
  0
VERTEX
  5
307
330
2C5
100
AcDbEntity
  8
LAY-1
  6
CONTINUOUS
 62
     3
100
AcDbVertex
100
AcDb2dVertex
 10
604.7900194746768
 20
128.4124655860682
 30
0.0
  0
VERTEX
  5
308
330
2C5
100
AcDbEntity
  8
LAY-1
  6
CONTINUOUS
 62
     3
100
AcDbVertex
100
AcDb2dVertex
 10
604.9690408444442
 20
128.4461410576377
 30
0.0
  0
VERTEX
  5
309
330
2C5
100
AcDbEntity
  8
LAY-1
  6
CONTINUOUS
 62
     3
100
AcDbVertex
100
AcDb2dVertex
 10
605.1490563009738
 20
128.4775507497413
 30
0.0
  0
VERTEX
  5
30A
330
2C5
100
AcDbEntity
  8
LAY-1
  6
CONTINUOUS
 62
     3
100
AcDbVertex
100
AcDb2dVertex
 10
605.3299964448714
 20
128.5066825542048
 30
0.0
  0
VERTEX
  5
30B
330
2C5
100
AcDbEntity
  8
LAY-1
  6
CONTINUOUS
 62
     3
100
AcDbVertex
100
AcDb2dVertex
 10
605.5117915203112
 20
128.5335252410221
 30
0.0
  0
VERTEX
  5
30C
330
2C5
100
AcDbEntity
  8
LAY-1
  6
CONTINUOUS
 62
     3
100
AcDbVertex
100
AcDb2dVertex
 10
605.6943714419273
 20
128.5580684626846
 30
0.0
  0
VERTEX
  5
30D
330
2C5
100
AcDbEntity
  8
LAY-1
  6
CONTINUOUS
 62
     3
100
AcDbVertex
100
AcDb2dVertex
 10
605.8776658218328
 20
128.5803027581673
 30
0.0
  0
VERTEX
  5
30E
330
2C5
100
AcDbEntity
  8
LAY-1
  6
CONTINUOUS
 62
     3
100
AcDbVertex
100
AcDb2dVertex
 10
606.0616039967557
 20
128.6002195565764
 30
0.0
  0
VERTEX
  5
30F
330
2C5
100
AcDbEntity
  8
LAY-1
  6
CONTINUOUS
 62
     3
100
AcDbVertex
100
AcDb2dVertex
 10
606.2461150552804
 20
128.6178111804515
 30
0.0
  0
VERTEX
  5
310
330
2C5
100
AcDbEntity
  8
LAY-1
  6
CONTINUOUS
 62
     3
100
AcDbVertex
100
AcDb2dVertex
 10
606.4311278651854
 20
128.6330708487241
 30
0.0
  0
VERTEX
  5
311
330
2C5
100
AcDbEntity
  8
LAY-1
  6
CONTINUOUS
 62
     3
100
AcDbVertex
100
AcDb2dVertex
 10
606.6165711008655
 20
128.6459926793305
 30
0.0
  0
VERTEX
  5
312
330
2C5
100
AcDbEntity
  8
LAY-1
  6
CONTINUOUS
 62
     3
100
AcDbVertex
100
AcDb2dVertex
 10
606.802373270828
 20
128.6565716914788
 30
0.0
  0
VERTEX
  5
313
330
2C5
100
AcDbEntity
  8
LAY-1
  6
CONTINUOUS
 62
     3
100
AcDbVertex
100
AcDb2dVertex
 10
606.9884627452543
 20
128.6648038075671
 30
0.0
  0
VERTEX
  5
314
330
2C5
100
AcDbEntity
  8
LAY-1
  6
CONTINUOUS
 62
     3
100
AcDbVertex
100
AcDb2dVertex
 10
607.1747677836137
 20
128.6706858547544
 30
0.0
  0
VERTEX
  5
315
330
2C5
100
AcDbEntity
  8
LAY-1
  6
CONTINUOUS
 62
     3
100
AcDbVertex
100
AcDb2dVertex
 10
607.3612165623194
 20
128.6742155661829
 30
0.0
  0
VERTEX
  5
316
330
2C5
100
AcDbEntity
  8
LAY-1
  6
CONTINUOUS
 62
     3
100
AcDbVertex
100
AcDb2dVertex
 10
607.5477372024176
 20
128.6753915818503
 30
0.0
  0
VERTEX
  5
317
330
2C5
100
AcDbEntity
  8
LAY-1
  6
CONTINUOUS
 62
     3
100
AcDbVertex
100
AcDb2dVertex
 10
607.7342577972969
 20
128.6742134491331
 30
0.0
  0
VERTEX
  5
318
330
2C5
100
AcDbEntity
  8
LAY-1
  6
CONTINUOUS
 62
     3
100
AcDbVertex
100
AcDb2dVertex
 10
607.9207064404089
 20
128.67068162296
 30
0.0
  0
VERTEX
  5
319
330
2C5
100
AcDbEntity
  8
LAY-1
  6
CONTINUOUS
 62
     3
100
AcDbVertex
100
AcDb2dVertex
 10
608.1070112529883
 20
128.6647974656355
 30
0.0
  0
VERTEX
  5
31A
330
2C5
100
AcDbEntity
  8
LAY-1
  6
CONTINUOUS
 62
     3
100
AcDbVertex
100
AcDb2dVertex
 10
608.2931004117629
 20
128.6565632463129
 30
0.0
  0
VERTEX
  5
31B
330
2C5
100
AcDbEntity
  8
LAY-1
  6
CONTINUOUS
 62
     3
100
AcDbVertex
100
AcDb2dVertex
 10
608.4789021766405
 20
128.6459821401196
 30
0.0
  0
VERTEX
  5
31C
330
2C5
100
AcDbEntity
  8
LAY-1
  6
CONTINUOUS
 62
     3
100
AcDbVertex
100
AcDb2dVertex
 10
608.6643449183662
 20
128.6330582269307
 30
0.0
  0
VERTEX
  5
31D
330
2C5
100
AcDbEntity
  8
LAY-1
  6
CONTINUOUS
 62
     3
100
AcDbVertex
100
AcDb2dVertex
 10
608.8493571461347
 20
128.617796489796
 30
0.0
  0
VERTEX
  5
31E
330
2C5
100
AcDbEntity
  8
LAY-1
  6
CONTINUOUS
 62
     3
100
AcDbVertex
100
AcDb2dVertex
 10
609.0338675351499
 20
128.6002028130179
 30
0.0
  0
VERTEX
  5
31F
330
2C5
100
AcDbEntity
  8
LAY-1
  6
CONTINUOUS
 62
     3
100
AcDbVertex
100
AcDb2dVertex
 10
609.2178049541211
 20
128.5802839798812
 30
0.0
  0
VERTEX
  5
320
330
2C5
100
AcDbEntity
  8
LAY-1
  6
CONTINUOUS
 62
     3
100
AcDbVertex
100
AcDb2dVertex
 10
609.4010984926833
 20
128.5580476700383
 30
0.0
  0
VERTEX
  5
321
330
2C5
100
AcDbEntity
  8
LAY-1
  6
CONTINUOUS
 62
     3
100
AcDbVertex
100
AcDb2dVertex
 10
609.5836774887331
 20
128.5335024565465
 30
0.0
  0
VERTEX
  5
322
330
2C5
100
AcDbEntity
  8
LAY-1
  6
CONTINUOUS
 62
     3
100
AcDbVertex
100
AcDb2dVertex
 10
609.7654715556696
 20
128.5066578025628
 30
0.0
  0
VERTEX
  5
323
330
2C5
100
AcDbEntity
  8
LAY-1
  6
CONTINUOUS
 62
     3
100
AcDbVertex
100
AcDb2dVertex
 10
609.9464106095261
 20
128.4775240576948
 30
0.0
  0
VERTEX
  5
324
330
2C5
100
AcDbEntity
  8
LAY-1
  6
CONTINUOUS
 62
     3
100
AcDbVertex
100
AcDb2dVertex
 10
610.1264248959898
 20
128.4461124540099
 30
0.0
  0
VERTEX
  5
325
330
2C5
100
AcDbEntity
  8
LAY-1
  6
CONTINUOUS
 62
     3
100
AcDbVertex
100
AcDb2dVertex
 10
610.3054450172889
 20
128.412435101704
 30
0.0
  0
VERTEX
  5
326
330
2C5
100
AcDbEntity
  8
LAY-1
  6
CONTINUOUS
 62
     3
100
AcDbVertex
100
AcDb2dVertex
 10
610.483401958947
 20
128.3765049844333
 30
0.0
  0
VERTEX
  5
327
330
2C5
100
AcDbEntity
  8
LAY-1
  6
CONTINUOUS
 62
     3
100
AcDbVertex
100
AcDb2dVertex
 10
610.6602271163867
 20
128.3383359543067
 30
0.0
  0
VERTEX
  5
328
330
2C5
100
AcDbEntity
  8
LAY-1
  6
CONTINUOUS
 62
     3
100
AcDbVertex
100
AcDb2dVertex
 10
610.8358523213765
 20
128.2979427265464
 30
0.0
  0
VERTEX
  5
329
330
2C5
100
AcDbEntity
  8
LAY-1
  6
CONTINUOUS
 62
     3
100
AcDbVertex
100
AcDb2dVertex
 10
611.0102098683083
 20
128.2553408738134
 30
0.0
  0
VERTEX
  5
32A
330
2C5
100
AcDbEntity
  8
LAY-1
  6
CONTINUOUS
 62
     3
100
AcDbVertex
100
AcDb2dVertex
 10
611.1832325402986
 20
128.2105468202039
 30
0.0
  0
VERTEX
  5
32B
330
2C5
100
AcDbEntity
  8
LAY-1
  6
CONTINUOUS
 62
     3
100
AcDbVertex
100
AcDb2dVertex
 10
611.3548536350985
 20
128.1635778349174
 30
0.0
  0
VERTEX
  5
32C
330
2C5
100
AcDbEntity
  8
LAY-1
  6
CONTINUOUS
 62
     3
100
AcDbVertex
100
AcDb2dVertex
 10
611.5250069908082
 20
128.1144520255976
 30
0.0
  0
VERTEX
  5
32D
330
2C5
100
AcDbEntity
  8
LAY-1
  6
CONTINUOUS
 62
     3
100
AcDbVertex
100
AcDb2dVertex
 10
611.6936270113798
 20
128.0631883313527
 30
0.0
  0
VERTEX
  5
32E
330
2C5
100
AcDbEntity
  8
LAY-1
  6
CONTINUOUS
 62
     3
100
AcDbVertex
100
AcDb2dVertex
 10
611.8606486919059
 20
128.0098065154527
 30
0.0
  0
VERTEX
  5
32F
330
2C5
100
AcDbEntity
  8
LAY-1
  6
CONTINUOUS
 62
     3
100
AcDbVertex
100
AcDb2dVertex
 10
612.0260076436766
 20
127.9543271577103
 30
0.0
  0
VERTEX
  5
330
330
2C5
100
AcDbEntity
  8
LAY-1
  6
CONTINUOUS
 62
     3
100
AcDbVertex
100
AcDb2dVertex
 10
612.189640119001
 20
127.8967716465474
 30
0.0
  0
VERTEX
  5
331
330
2C5
100
AcDbEntity
  8
LAY-1
  6
CONTINUOUS
 62
     3
100
AcDbVertex
100
AcDb2dVertex
 10
612.3514830357815
 20
127.8371621707482
 30
0.0
  0
VERTEX
  5
332
330
2C5
100
AcDbEntity
  8
LAY-1
  6
CONTINUOUS
 62
     3
100
AcDbVertex
100
AcDb2dVertex
 10
612.5114740018304
 20
127.7755217109062
 30
0.0
  0
VERTEX
  5
333
330
2C5
100
AcDbEntity
  8
LAY-1
  6
CONTINUOUS
 62
     3
100
AcDbVertex
100
AcDb2dVertex
 10
612.6695513389218
 20
127.7118740305638
 30
0.0
  0
VERTEX
  5
334
330
2C5
100
AcDbEntity
  8
LAY-1
  6
CONTINUOUS
 62
     3
100
AcDbVertex
100
AcDb2dVertex
 10
612.8256541065676
 20
127.6462436670515
 30
0.0
  0
VERTEX
  5
335
330
2C5
100
AcDbEntity
  8
LAY-1
  6
CONTINUOUS
 62
     3
100
AcDbVertex
100
AcDb2dVertex
 10
612.9797221255087
 20
127.5786559220284
 30
0.0
  0
VERTEX
  5
336
330
2C5
100
AcDbEntity
  8
LAY-1
  6
CONTINUOUS
 62
     3
100
AcDbVertex
100
AcDb2dVertex
 10
613.1316960009134
 20
127.5091368517279
 30
0.0
  0
VERTEX
  5
337
330
2C5
100
AcDbEntity
  8
LAY-1
  6
CONTINUOUS
 62
     3
100
AcDbVertex
100
AcDb2dVertex
 10
613.2815171452738
 20
127.4377132569125
 30
0.0
  0
VERTEX
  5
338
330
2C5
100
AcDbEntity
  8
LAY-1
  6
CONTINUOUS
 62
     3
100
AcDbVertex
100
AcDb2dVertex
 10
613.4291278009892
 20
127.3644126725426
 30
0.0
  0
VERTEX
  5
339
330
2C5
100
AcDbEntity
  8
LAY-1
  6
CONTINUOUS
 62
     3
100
AcDbVertex
100
AcDb2dVertex
 10
613.5744710626324
 20
127.2892633571605
 30
0.0
  0
VERTEX
  5
33A
330
2C5
100
AcDbEntity
  8
LAY-1
  6
CONTINUOUS
 62
     3
100
AcDbVertex
100
AcDb2dVertex
 10
613.7174908988839
 20
127.2122942819978
 30
0.0
  0
VERTEX
  5
33B
330
2C5
100
AcDbEntity
  8
LAY-1
  6
CONTINUOUS
 62
     3
100
AcDbVertex
100
AcDb2dVertex
 10
613.8581321741324
 20
127.1335351198056
 30
0.0
  0
VERTEX
  5
33C
330
2C5
100
AcDbEntity
  8
LAY-1
  6
CONTINUOUS
 62
     3
100
AcDbVertex
100
AcDb2dVertex
 10
613.9963406697282
 20
127.0530162334164
 30
0.0
  0
VERTEX
  5
33D
330
2C5
100
AcDbEntity
  8
LAY-1
  6
CONTINUOUS
 62
     3
100
AcDbVertex
100
AcDb2dVertex
 10
614.1320631048841
 20
126.9707686640389
 30
0.0
  0
VERTEX
  5
33E
330
2C5
100
AcDbEntity
  8
LAY-1
  6
CONTINUOUS
 62
     3
100
AcDbVertex
100
AcDb2dVertex
 10
614.2652471572135
 20
126.886824119291
 30
0.0
  0
VERTEX
  5
33F
330
2C5
100
AcDbEntity
  8
LAY-1
  6
CONTINUOUS
 62
     3
100
AcDbVertex
100
AcDb2dVertex
 10
614.3958414829002
 20
126.8012149609779
 30
0.0
  0
VERTEX
  5
340
330
2C5
100
AcDbEntity
  8
LAY-1
  6
CONTINUOUS
 62
     3
100
AcDbVertex
100
AcDb2dVertex
 10
614.5237957364917
 20
126.713974192615
 30
0.0
  0
VERTEX
  5
341
330
2C5
100
AcDbEntity
  8
LAY-1
  6
CONTINUOUS
 62
     3
100
AcDbVertex
100
AcDb2dVertex
 10
614.6490605903035
 20
126.6251354467062
 30
0.0
  0
VERTEX
  5
342
330
2C5
100
AcDbEntity
  8
LAY-1
  6
CONTINUOUS
 62
     3
100
AcDbVertex
100
AcDb2dVertex
 10
614.771587753438
 20
126.5347329717785
 30
0.0
  0
VERTEX
  5
343
330
2C5
100
AcDbEntity
  8
LAY-1
  6
CONTINUOUS
 62
     3
100
AcDbVertex
100
AcDb2dVertex
 10
614.8913299903974
 20
126.4428016191786
 30
0.0
  0
VERTEX
  5
344
330
2C5
100
AcDbEntity
  8
LAY-1
  6
CONTINUOUS
 62
     3
100
AcDbVertex
100
AcDb2dVertex
 10
615.0082411392925
 20
126.3493768296391
 30
0.0
  0
VERTEX
  5
345
330
2C5
100
AcDbEntity
  8
LAY-1
  6
CONTINUOUS
 62
     3
100
AcDbVertex
100
AcDb2dVertex
 10
615.1222761296385
 20
126.2544946196152
 30
0.0
  0
VERTEX
  5
346
330
2C5
100
AcDbEntity
  8
LAY-1
  6
CONTINUOUS
 62
     3
100
AcDbVertex
100
AcDb2dVertex
 10
615.2333909997278
 20
126.1581915674008
 30
0.0
  0
VERTEX
  5
347
330
2C5
100
AcDbEntity
  8
LAY-1
  6
CONTINUOUS
 62
     3
100
AcDbVertex
100
AcDb2dVertex
 10
615.3415429135773
 20
126.0605047990284
 30
0.0
  0
VERTEX
  5
348
330
2C5
100
AcDbEntity
  8
LAY-1
  6
CONTINUOUS
 62
     3
100
AcDbVertex
100
AcDb2dVertex
 10
615.446690177441
 20
125.9614719739563
 30
0.0
  0
VERTEX
  5
349
330
2C5
100
AcDbEntity
  8
LAY-1
  6
CONTINUOUS
 62
     3
100
AcDbVertex
100
AcDb2dVertex
 10
615.5487922558823
 20
125.8611312705521
 30
0.0
  0
VERTEX
  5
34A
330
2C5
100
AcDbEntity
  8
LAY-1
  6
CONTINUOUS
 62
     3
100
AcDbVertex
100
AcDb2dVertex
 10
615.6478097873994
 20
125.7595213713748
 30
0.0
  0
VERTEX
  5
34B
330
2C5
100
AcDbEntity
  8
LAY-1
  6
CONTINUOUS
 62
     3
100
AcDbVertex
100
AcDb2dVertex
 10
615.7437045995995
 20
125.6566814482629
 30
0.0
  0
VERTEX
  5
34C
330
2C5
100
AcDbEntity
  8
LAY-1
  6
CONTINUOUS
 62
     3
100
AcDbVertex
100
AcDb2dVertex
 10
615.8364397239138
 20
125.552651147234
 30
0.0
  0
VERTEX
  5
34D
330
2C5
100
AcDbEntity
  8
LAY-1
  6
CONTINUOUS
 62
     3
100
AcDbVertex
100
AcDb2dVertex
 10
615.9259794098479
 20
125.4474705732022
 30
0.0
  0
VERTEX
  5
34E
330
2C5
100
AcDbEntity
  8
LAY-1
  6
CONTINUOUS
 62
     3
100
AcDbVertex
100
AcDb2dVertex
 10
616.0122891387631
 20
125.3411802745172
 30
0.0
  0
VERTEX
  5
34F
330
2C5
100
AcDbEntity
  8
LAY-1
  6
CONTINUOUS
 62
     3
100
AcDbVertex
100
AcDb2dVertex
 10
616.0953356371845
 20
125.2338212273341
 30
0.0
  0
VERTEX
  5
350
330
2C5
100
AcDbEntity
  8
LAY-1
  6
CONTINUOUS
 62
     3
100
AcDbVertex
100
AcDb2dVertex
 10
616.1750868896256
 20
125.125434819817
 30
0.0
  0
VERTEX
  5
351
330
2C5
100
AcDbEntity
  8
LAY-1
  6
CONTINUOUS
 62
     3
100
AcDbVertex
100
AcDb2dVertex
 10
616.251512150932
 20
125.0160628361845
 30
0.0
  0
VERTEX
  5
352
330
2C5
100
AcDbEntity
  8
LAY-1
  6
CONTINUOUS
 62
     3
100
AcDbVertex
100
AcDb2dVertex
 10
616.3245819581323
 20
124.9057474406021
 30
0.0
  0
VERTEX
  5
353
330
2C5
100
AcDbEntity
  8
LAY-1
  6
CONTINUOUS
 62
     3
100
AcDbVertex
100
AcDb2dVertex
 10
616.3942681417964
 20
124.7945311609287
 30
0.0
  0
VERTEX
  5
354
330
2C5
100
AcDbEntity
  8
LAY-1
  6
CONTINUOUS
 62
     3
100
AcDbVertex
100
AcDb2dVertex
 10
616.4605438368947
 20
124.6824568723226
 30
0.0
  0
VERTEX
  5
355
330
2C5
100
AcDbEntity
  8
LAY-1
  6
CONTINUOUS
 62
     3
100
AcDbVertex
100
AcDb2dVertex
 10
616.5233834931547
 20
124.569567780713
 30
0.0
  0
VERTEX
  5
356
330
2C5
100
AcDbEntity
  8
LAY-1
  6
CONTINUOUS
 62
     3
100
AcDbVertex
100
AcDb2dVertex
 10
616.5827628849111
 20
124.4559074061455
 30
0.0
  0
VERTEX
  5
357
330
2C5
100
AcDbEntity
  8
LAY-1
  6
CONTINUOUS
 62
     3
100
AcDbVertex
100
AcDb2dVertex
 10
616.6386591204433
 20
124.3415195660046
 30
0.0
  0
VERTEX
  5
358
330
2C5
100
AcDbEntity
  8
LAY-1
  6
CONTINUOUS
 62
     3
100
AcDbVertex
100
AcDb2dVertex
 10
616.6910506508026
 20
124.2264483581237
 30
0.0
  0
VERTEX
  5
359
330
2C5
100
AcDbEntity
  8
LAY-1
  6
CONTINUOUS
 62
     3
100
AcDbVertex
100
AcDb2dVertex
 10
616.7399172781179
 20
124.1107381437845
 30
0.0
  0
VERTEX
  5
35A
330
2C5
100
AcDbEntity
  8
LAY-1
  6
CONTINUOUS
 62
     3
100
AcDbVertex
100
AcDb2dVertex
 10
616.7852401633827
 20
123.9944335306179
 30
0.0
  0
VERTEX
  5
35B
330
2C5
100
AcDbEntity
  8
LAY-1
  6
CONTINUOUS
 62
     3
100
AcDbVertex
100
AcDb2dVertex
 10
616.8270018337188
 20
123.8775793554066
 30
0.0
  0
VERTEX
  5
35C
330
2C5
100
AcDbEntity
  8
LAY-1
  6
CONTINUOUS
 62
     3
100
AcDbVertex
100
AcDb2dVertex
 10
616.8651861891105
 20
123.7602206668017
 30
0.0
  0
VERTEX
  5
35D
330
2C5
100
AcDbEntity
  8
LAY-1
  6
CONTINUOUS
 62
     3
100
AcDbVertex
100
AcDb2dVertex
 10
616.8997785086136
 20
123.6424027079574
 30
0.0
  0
VERTEX
  5
35E
330
2C5
100
AcDbEntity
  8
LAY-1
  6
CONTINUOUS
 62
     3
100
AcDbVertex
100
AcDb2dVertex
 10
616.93076545603
 20
123.5241708990893
 30
0.0
  0
VERTEX
  5
35F
330
2C5
100
AcDbEntity
  8
LAY-1
  6
CONTINUOUS
 62
     3
100
AcDbVertex
100
AcDb2dVertex
 10
616.9581350850492
 20
123.405570819966
 30
0.0
  0
VERTEX
  5
360
330
2C5
100
AcDbEntity
  8
LAY-1
  6
CONTINUOUS
 62
     3
100
AcDbVertex
100
AcDb2dVertex
 10
616.9818768438543
 20
123.2866481923381
 30
0.0
  0
VERTEX
  5
361
330
2C5
100
AcDbEntity
  8
LAY-1
  6
CONTINUOUS
 62
     3
100
AcDbVertex
100
AcDb2dVertex
 10
617.0019815791906
 20
123.1674488623133
 30
0.0
  0
VERTEX
  5
362
330
2C5
100
AcDbEntity
  8
LAY-1
  6
CONTINUOUS
 62
     3
100
AcDbVertex
100
AcDb2dVertex
 10
617.0184415398952
 20
123.0480187826828
 30
0.0
  0
VERTEX
  5
363
330
2C5
100
AcDbEntity
  8
LAY-1
  6
CONTINUOUS
 62
     3
100
AcDbVertex
100
AcDb2dVertex
 10
617.0312503798848
 20
122.9284039952074
 30
0.0
  0
VERTEX
  5
364
330
2C5
100
AcDbEntity
  8
LAY-1
  6
CONTINUOUS
 62
     3
100
AcDbVertex
100
AcDb2dVertex
 10
617.0404031606042
 20
122.8086506128676
 30
0.0
  0
VERTEX
  5
365
330
2C5
100
AcDbEntity
  8
LAY-1
  6
CONTINUOUS
 62
     3
100
AcDbVertex
100
AcDb2dVertex
 10
617.0458963529301
 20
122.688804802089
 30
0.0
  0
VERTEX
  5
366
330
2C5
100
AcDbEntity
  8
LAY-1
  6
CONTINUOUS
 62
     3
100
AcDbVertex
100
AcDb2dVertex
 10
617.0477278385324
 20
122.5689127649441
 30
0.0
  0
VERTEX
  5
367
330
2C5
100
AcDbEntity
  8
LAY-1
  6
CONTINUOUS
 62
     3
100
AcDbVertex
100
AcDb2dVertex
 10
617.045896910693
 20
122.4490207213427
 30
0.0
  0
VERTEX
  5
368
330
2C5
100
AcDbEntity
  8
LAY-1
  6
CONTINUOUS
 62
     3
100
AcDbVertex
100
AcDb2dVertex
 10
617.0404042745779
 20
122.3291748912136
 30
0.0
  0
VERTEX
  5
369
330
2C5
100
AcDbEntity
  8
LAY-1
  6
CONTINUOUS
 62
     3
100
AcDbVertex
100
AcDb2dVertex
 10
617.031252046967
 20
122.2094214766876
 30
0.0
  0
VERTEX
  5
36A
330
2C5
100
AcDbEntity
  8
LAY-1
  6
CONTINUOUS
 62
     3
100
AcDbVertex
100
AcDb2dVertex
 10
617.0184437554387
 20
122.0898066442865
 30
0.0
  0
VERTEX
  5
36B
330
2C5
100
AcDbEntity
  8
LAY-1
  6
CONTINUOUS
 62
     3
100
AcDbVertex
100
AcDb2dVertex
 10
617.0019843370122
 20
121.9703765071268
 30
0.0
  0
VERTEX
  5
36C
330
2C5
100
AcDbEntity
  8
LAY-1
  6
CONTINUOUS
 62
     3
100
AcDbVertex
100
AcDb2dVertex
 10
616.9818801362446
 20
121.8511771071421
 30
0.0
  0
VERTEX
  5
36D
330
2C5
100
AcDbEntity
  8
LAY-1
  6
CONTINUOUS
 62
     3
100
AcDbVertex
100
AcDb2dVertex
 10
616.9581389027863
 20
121.7322543973348
 30
0.0
  0
VERTEX
  5
36E
330
2C5
100
AcDbEntity
  8
LAY-1
  6
CONTINUOUS
 62
     3
100
AcDbVertex
100
AcDb2dVertex
 10
616.930769788395
 20
121.6136542240613
 30
0.0
  0
VERTEX
  5
36F
330
2C5
100
AcDbEntity
  8
LAY-1
  6
CONTINUOUS
 62
     3
100
AcDbVertex
100
AcDb2dVertex
 10
616.8997833434089
 20
121.4954223093586
 30
0.0
  0
VERTEX
  5
370
330
2C5
100
AcDbEntity
  8
LAY-1
  6
CONTINUOUS
 62
     3
100
AcDbVertex
100
AcDb2dVertex
 10
616.8651915126809
 20
121.3776042333173
 30
0.0
  0
VERTEX
  5
371
330
2C5
100
AcDbEntity
  8
LAY-1
  6
CONTINUOUS
 62
     3
100
AcDbVertex
100
AcDb2dVertex
 10
616.8270076309752
 20
121.260245416512
 30
0.0
  0
VERTEX
  5
372
330
2C5
100
AcDbEntity
  8
LAY-1
  6
CONTINUOUS
 62
     3
100
AcDbVertex
100
AcDb2dVertex
 10
616.7852464178278
 20
121.1433911024905
 30
0.0
  0
VERTEX
  5
373
330
2C5
100
AcDbEntity
  8
LAY-1
  6
CONTINUOUS
 62
     3
100
AcDbVertex
100
AcDb2dVertex
 10
616.7399239718741
 20
121.0270863403329
 30
0.0
  0
VERTEX
  5
374
330
2C5
100
AcDbEntity
  8
LAY-1
  6
CONTINUOUS
 62
     3
100
AcDbVertex
100
AcDb2dVertex
 10
616.6910577646438
 20
120.9113759672848
 30
0.0
  0
VERTEX
  5
375
330
2C5
100
AcDbEntity
  8
LAY-1
  6
CONTINUOUS
 62
     3
100
AcDbVertex
100
AcDb2dVertex
 10
616.6386666338269
 20
120.7963045914727
 30
0.0
  0
VERTEX
  5
376
330
2C5
100
AcDbEntity
  8
LAY-1
  6
CONTINUOUS
 62
     3
100
AcDbVertex
100
AcDb2dVertex
 10
616.5827707760138
 20
120.681916574707
 30
0.0
  0
VERTEX
  5
377
330
2C5
100
AcDbEntity
  8
LAY-1
  6
CONTINUOUS
 62
     3
100
AcDbVertex
100
AcDb2dVertex
 10
616.5233917389104
 20
120.5682560153805
 30
0.0
  0
VERTEX
  5
378
330
2C5
100
AcDbEntity
  8
LAY-1
  6
CONTINUOUS
 62
     3
100
AcDbVertex
100
AcDb2dVertex
 10
616.4605524130336
 20
120.4553667314683
 30
0.0
  0
VERTEX
  5
379
330
2C5
100
AcDbEntity
  8
LAY-1
  6
CONTINUOUS
 62
     3
100
AcDbVertex
100
AcDb2dVertex
 10
616.3942770228876
 20
120.3432922436352
 30
0.0
  0
VERTEX
  5
37A
330
2C5
100
AcDbEntity
  8
LAY-1
  6
CONTINUOUS
 62
     3
100
AcDbVertex
100
AcDb2dVertex
 10
616.3245911176274
 20
120.2320757584588
 30
0.0
  0
VERTEX
  5
37B
330
2C5
100
AcDbEntity
  8
LAY-1
  6
CONTINUOUS
 62
     3
100
AcDbVertex
100
AcDb2dVertex
 10
616.2515215612108
 20
120.1217601517723
 30
0.0
  0
VERTEX
  5
37C
330
2C5
100
AcDbEntity
  8
LAY-1
  6
CONTINUOUS
 62
     3
100
AcDbVertex
100
AcDb2dVertex
 10
616.1750965220438
 20
120.0123879521357
 30
0.0
  0
VERTEX
  5
37D
330
2C5
100
AcDbEntity
  8
LAY-1
  6
CONTINUOUS
 62
     3
100
AcDbVertex
100
AcDb2dVertex
 10
616.0953454621239
 20
119.904001324441
 30
0.0
  0
VERTEX
  5
37E
330
2C5
100
AcDbEntity
  8
LAY-1
  6
CONTINUOUS
 62
     3
100
AcDbVertex
100
AcDb2dVertex
 10
616.0122991256828
 20
119.7966420536561
 30
0.0
  0
VERTEX
  5
37F
330
2C5
100
AcDbEntity
  8
LAY-1
  6
CONTINUOUS
 62
     3
100
AcDbVertex
100
AcDb2dVertex
 10
615.9259895273366
 20
119.6903515287167
 30
0.0
  0
VERTEX
  5
380
330
2C5
100
AcDbEntity
  8
LAY-1
  6
CONTINUOUS
 62
     3
100
AcDbVertex
100
AcDb2dVertex
 10
615.8364499397455
 20
119.5851707265708
 30
0.0
  0
VERTEX
  5
381
330
2C5
100
AcDbEntity
  8
LAY-1
  6
CONTINUOUS
 62
     3
100
AcDbVertex
100
AcDb2dVertex
 10
615.7437148807886
 20
119.4811401963802
 30
0.0
  0
VERTEX
  5
382
330
2C5
100
AcDbEntity
  8
LAY-1
  6
CONTINUOUS
 62
     3
100
AcDbVertex
100
AcDb2dVertex
 10
615.647820100259
 20
119.378300043889
 30
0.0
  0
VERTEX
  5
383
330
2C5
100
AcDbEntity
  8
LAY-1
  6
CONTINUOUS
 62
     3
100
AcDbVertex
100
AcDb2dVertex
 10
615.5488025660824
 20
119.2766899159617
 30
0.0
  0
VERTEX
  5
384
330
2C5
100
AcDbEntity
  8
LAY-1
  6
CONTINUOUS
 62
     3
100
AcDbVertex
100
AcDb2dVertex
 10
615.4467004500692
 20
119.1763489852988
 30
0.0
  0
VERTEX
  5
385
330
2C5
100
AcDbEntity
  8
LAY-1
  6
CONTINUOUS
 62
     3
100
AcDbVertex
100
AcDb2dVertex
 10
615.3415531131994
 20
119.0773159353346
 30
0.0
  0
VERTEX
  5
386
330
2C5
100
AcDbEntity
  8
LAY-1
  6
CONTINUOUS
 62
     3
100
AcDbVertex
100
AcDb2dVertex
 10
615.2334010904499
 20
118.9796289453239
 30
0.0
  0
VERTEX
  5
387
330
2C5
100
AcDbEntity
  8
LAY-1
  6
CONTINUOUS
 62
     3
100
AcDbVertex
100
AcDb2dVertex
 10
615.1222860751706
 20
118.8833256756233
 30
0.0
  0
VERTEX
  5
388
330
2C5
100
AcDbEntity
  8
LAY-1
  6
CONTINUOUS
 62
     3
100
AcDbVertex
100
AcDb2dVertex
 10
615.0082509030123
 20
118.7884432531714
 30
0.0
  0
VERTEX
  5
389
330
2C5
100
AcDbEntity
  8
LAY-1
  6
CONTINUOUS
 62
     3
100
AcDbVertex
100
AcDb2dVertex
 10
614.8913395354147
 20
118.6950182571766
 30
0.0
  0
VERTEX
  5
38A
330
2C5
100
AcDbEntity
  8
LAY-1
  6
CONTINUOUS
 62
     3
100
AcDbVertex
100
AcDb2dVertex
 10
614.7715970426607
 20
118.6030867050133
 30
0.0
  0
VERTEX
  5
38B
330
2C5
100
AcDbEntity
  8
LAY-1
  6
CONTINUOUS
 62
     3
100
AcDbVertex
100
AcDb2dVertex
 10
614.6490695865026
 20
118.5126840383372
 30
0.0
  0
VERTEX
  5
38C
330
2C5
100
AcDbEntity
  8
LAY-1
  6
CONTINUOUS
 62
     3
100
AcDbVertex
100
AcDb2dVertex
 10
614.5238044023672
 20
118.4238451094214
 30
0.0
  0
VERTEX
  5
38D
330
2C5
100
AcDbEntity
  8
LAY-1
  6
CONTINUOUS
 62
     3
100
AcDbVertex
100
AcDb2dVertex
 10
614.3958497811499
 20
118.3366041677186
 30
0.0
  0
VERTEX
  5
38E
330
2C5
100
AcDbEntity
  8
LAY-1
  6
CONTINUOUS
 62
     3
100
AcDbVertex
100
AcDb2dVertex
 10
614.2652550505966
 20
118.250994846658
 30
0.0
  0
VERTEX
  5
38F
330
2C5
100
AcDbEntity
  8
LAY-1
  6
CONTINUOUS
 62
     3
100
AcDbVertex
100
AcDb2dVertex
 10
614.1320705562903
 20
118.1670501506779
 30
0.0
  0
VERTEX
  5
390
330
2C5
100
AcDbEntity
  8
LAY-1
  6
CONTINUOUS
 62
     3
100
AcDbVertex
100
AcDb2dVertex
 10
613.9963476422438
 20
118.0848024425007
 30
0.0
  0
VERTEX
  5
391
330
2C5
100
AcDbEntity
  8
LAY-1
  6
CONTINUOUS
 62
     3
100
AcDbVertex
100
AcDb2dVertex
 10
613.858138631107
 20
118.0042834306568
 30
0.0
  0
VERTEX
  5
392
330
2C5
100
AcDbEntity
  8
LAY-1
  6
CONTINUOUS
 62
     3
100
AcDbVertex
100
AcDb2dVertex
 10
613.7174968039969
 20
117.925524157259
 30
0.0
  0
VERTEX
  5
393
330
2C5
100
AcDbEntity
  8
LAY-1
  6
CONTINUOUS
 62
     3
100
AcDbVertex
100
AcDb2dVertex
 10
613.5744763799595
 20
117.8485549860341
 30
0.0
  0
VERTEX
  5
394
330
2C5
100
AcDbEntity
  8
LAY-1
  6
CONTINUOUS
 62
     3
100
AcDbVertex
100
AcDb2dVertex
 10
613.4291324950675
 20
117.7734055906171
 30
0.0
  0
VERTEX
  5
395
330
2C5
100
AcDbEntity
  8
LAY-1
  6
CONTINUOUS
 62
     3
100
AcDbVertex
100
AcDb2dVertex
 10
613.2815211811674
 20
117.7001049431099
 30
0.0
  0
VERTEX
  5
396
330
2C5
100
AcDbEntity
  8
LAY-1
  6
CONTINUOUS
 62
     3
100
AcDbVertex
100
AcDb2dVertex
 10
613.1316993442776
 20
117.6286813029116
 30
0.0
  0
VERTEX
  5
397
330
2C5
100
AcDbEntity
  8
LAY-1
  6
CONTINUOUS
 62
     3
100
AcDbVertex
100
AcDb2dVertex
 10
612.9797247426549
 20
117.5591622058226
 30
0.0
  0
VERTEX
  5
398
330
2C5
100
AcDbEntity
  8
LAY-1
  6
CONTINUOUS
 62
     3
100
AcDbVertex
100
AcDb2dVertex
 10
612.8256559645249
 20
117.4915744534284
 30
0.0
  0
VERTEX
  5
399
330
2C5
100
AcDbEntity
  8
LAY-1
  6
CONTINUOUS
 62
     3
100
AcDbVertex
100
AcDb2dVertex
 10
612.6695524054995
 20
117.425944102766
 30
0.0
  0
VERTEX
  5
39A
330
2C5
100
AcDbEntity
  8
LAY-1
  6
CONTINUOUS
 62
     3
100
AcDbVertex
100
AcDb2dVertex
 10
612.5114742456792
 20
117.3622964562771
 30
0.0
  0
VERTEX
  5
39B
330
2C5
100
AcDbEntity
  8
LAY-1
  6
CONTINUOUS
 62
     3
100
AcDbVertex
100
AcDb2dVertex
 10
612.3514824264528
 20
117.3006560520529
 30
0.0
  0
VERTEX
  5
39C
330
2C5
100
AcDbEntity
  8
LAY-1
  6
CONTINUOUS
 62
     3
100
AcDbVertex
100
AcDb2dVertex
 10
612.1896386270058
 20
117.241046654373
 30
0.0
  0
VERTEX
  5
39D
330
2C5
100
AcDbEntity
  8
LAY-1
  6
CONTINUOUS
 62
     3
100
AcDbVertex
100
AcDb2dVertex
 10
612.0260052405424
 20
117.1834912445422
 30
0.0
  0
VERTEX
  5
39E
330
2C5
100
AcDbEntity
  8
LAY-1
  6
CONTINUOUS
 62
     3
100
AcDbVertex
100
AcDb2dVertex
 10
611.8606453502332
 20
117.1280120120301
 30
0.0
  0
VERTEX
  5
39F
330
2C5
100
AcDbEntity
  8
LAY-1
  6
CONTINUOUS
 62
     3
100
AcDbVertex
100
AcDb2dVertex
 10
611.6936227048952
 20
117.0746303459158
 30
0.0
  0
VERTEX
  5
3A0
330
2C5
100
AcDbEntity
  8
LAY-1
  6
CONTINUOUS
 62
     3
100
AcDbVertex
100
AcDb2dVertex
 10
611.5250016944177
 20
117.0233668266397
 30
0.0
  0
VERTEX
  5
3A1
330
2C5
100
AcDbEntity
  8
LAY-1
  6
CONTINUOUS
 62
     3
100
AcDbVertex
100
AcDb2dVertex
 10
611.3548473249391
 20
116.9742412180693
 30
0.0
  0
VERTEX
  5
3A2
330
2C5
100
AcDbEntity
  8
LAY-1
  6
CONTINUOUS
 62
     3
100
AcDbVertex
100
AcDb2dVertex
 10
611.1832251937858
 20
116.9272724598778
 30
0.0
  0
VERTEX
  5
3A3
330
2C5
100
AcDbEntity
  8
LAY-1
  6
CONTINUOUS
 62
     3
100
AcDbVertex
100
AcDb2dVertex
 10
611.0102014641849
 20
116.8824786602416
 30
0.0
  0
VERTEX
  5
3A4
330
2C5
100
AcDbEntity
  8
LAY-1
  6
CONTINUOUS
 62
     3
100
AcDbVertex
100
AcDb2dVertex
 10
610.8358428397568
 20
116.8398770888581
 30
0.0
  0
VERTEX
  5
3A5
330
2C5
100
AcDbEntity
  8
LAY-1
  6
CONTINUOUS
 62
     3
100
AcDbVertex
100
AcDb2dVertex
 10
610.660216538801
 20
116.7994841702862
 30
0.0
  0
VERTEX
  5
3A6
330
2C5
100
AcDbEntity
  8
LAY-1
  6
CONTINUOUS
 62
     3
100
AcDbVertex
100
AcDb2dVertex
 10
610.4833902683815
 20
116.7613154776133
 30
0.0
  0
VERTEX
  5
3A7
330
2C5
100
AcDbEntity
  8
LAY-1
  6
CONTINUOUS
 62
     3
100
AcDbVertex
100
AcDb2dVertex
 10
610.3054321982257
 20
116.7253857264503
 30
0.0
  0
VERTEX
  5
3A8
330
2C5
100
AcDbEntity
  8
LAY-1
  6
CONTINUOUS
 62
     3
100
AcDbVertex
100
AcDb2dVertex
 10
610.1264109344438
 20
116.691708769257
 30
0.0
  0
VERTEX
  5
3A9
330
2C5
100
AcDbEntity
  8
LAY-1
  6
CONTINUOUS
 62
     3
100
AcDbVertex
100
AcDb2dVertex
 10
609.9463954930791
 20
116.6602975900005
 30
0.0
  0
VERTEX
  5
3AA
330
2C5
100
AcDbEntity
  8
LAY-1
  6
CONTINUOUS
 62
     3
100
AcDbVertex
100
AcDb2dVertex
 10
609.7654552735023
 20
116.6311642991483
 30
0.0
  0
VERTEX
  5
3AB
330
2C5
100
AcDbEntity
  8
LAY-1
  6
CONTINUOUS
 62
     3
100
AcDbVertex
100
AcDb2dVertex
 10
609.5836600316563
 20
116.6043201289978
 30
0.0
  0
VERTEX
  5
3AC
330
2C5
100
AcDbEntity
  8
LAY-1
  6
CONTINUOUS
 62
     3
100
AcDbVertex
100
AcDb2dVertex
 10
609.4010798531637
 20
116.5797754293454
 30
0.0
  0
VERTEX
  5
3AD
330
2C5
100
AcDbEntity
  8
LAY-1
  6
CONTINUOUS
 62
     3
100
AcDbVertex
100
AcDb2dVertex
 10
609.217785126307
 20
116.5575396634947
 30
0.0
  0
VERTEX
  5
3AE
330
2C5
100
AcDbEntity
  8
LAY-1
  6
CONTINUOUS
 62
     3
100
AcDbVertex
100
AcDb2dVertex
 10
609.0338465148938
 20
116.5376214046067
 30
0.0
  0
VERTEX
  5
3AF
330
2C5
100
AcDbEntity
  8
LAY-1
  6
CONTINUOUS
 62
     3
100
AcDbVertex
100
AcDb2dVertex
 10
608.8493349310121
 20
116.5200283323941
 30
0.0
  0
VERTEX
  5
3B0
330
2C5
100
AcDbEntity
  8
LAY-1
  6
CONTINUOUS
 62
     3
100
AcDbVertex
100
AcDb2dVertex
 10
608.6643215076937
 20
116.5047672301583
 30
0.0
  0
VERTEX
  5
3B1
330
2C5
100
AcDbEntity
  8
LAY-1
  6
CONTINUOUS
 62
     3
100
AcDbVertex
100
AcDb2dVertex
 10
608.4788775714899
 20
116.491843982174
 30
0.0
  0
VERTEX
  5
3B2
330
2C5
100
AcDbEntity
  8
LAY-1
  6
CONTINUOUS
 62
     3
100
AcDbVertex
100
AcDb2dVertex
 10
608.2930746149733
 20
116.4812635714189
 30
0.0
  0
VERTEX
  5
3B3
330
2C5
100
AcDbEntity
  8
LAY-1
  6
CONTINUOUS
 62
     3
100
AcDbVertex
100
AcDb2dVertex
 10
608.1069842691749
 20
116.4730300776514
 30
0.0
  0
VERTEX
  5
3B4
330
2C5
100
AcDbEntity
  8
LAY-1
  6
CONTINUOUS
 62
     3
100
AcDbVertex
100
AcDb2dVertex
 10
607.9206782759699
 20
116.4671466758365
 30
0.0
  0
VERTEX
  5
3B5
330
2C5
100
AcDbEntity
  8
LAY-1
  6
CONTINUOUS
 62
     3
100
AcDbVertex
100
AcDb2dVertex
 10
607.7342284604167
 20
116.463615634921
 30
0.0
  0
VERTEX
  5
3B6
330
2C5
100
AcDbEntity
  8
LAY-1
  6
CONTINUOUS
 62
     3
100
AcDbVertex
100
AcDb2dVertex
 10
607.5477067030681
 20
116.4624383169572
 30
0.0
  0
VERTEX
  5
3B7
330
2C5
100
AcDbEntity
  8
LAY-1
  6
CONTINUOUS
 62
     3
100
AcDbVertex
100
AcDb2dVertex
 10
607.3611849122584
 20
116.4636151765764
 30
0.0
  0
VERTEX
  5
3B8
330
2C5
100
AcDbEntity
  8
LAY-1
  6
CONTINUOUS
 62
     3
100
AcDbVertex
100
AcDb2dVertex
 10
607.1747349963799
 20
116.467145760813
 30
0.0
  0
VERTEX
  5
3B9
330
2C5
100
AcDbEntity
  8
LAY-1
  6
CONTINUOUS
 62
     3
100
AcDbVertex
100
AcDb2dVertex
 10
606.98842883616
 20
116.4730287092778
 30
0.0
  0
VERTEX
  5
3BA
330
2C5
100
AcDbEntity
  8
LAY-1
  6
CONTINUOUS
 62
     3
100
AcDbVertex
100
AcDb2dVertex
 10
606.8023382569497
 20
116.4812617546809
 30
0.0
  0
VERTEX
  5
3BB
330
2C5
100
AcDbEntity
  8
LAY-1
  6
CONTINUOUS
 62
     3
100
AcDbVertex
100
AcDb2dVertex
 10
606.6165350010307
 20
116.4918417237056
 30
0.0
  0
VERTEX
  5
3BC
330
2C5
100
AcDbEntity
  8
LAY-1
  6
CONTINUOUS
 62
     3
100
AcDbVertex
100
AcDb2dVertex
 10
606.431090699957
 20
116.5047645382298
 30
0.0
  0
VERTEX
  5
3BD
330
2C5
100
AcDbEntity
  8
LAY-1
  6
CONTINUOUS
 62
     3
100
AcDbVertex
100
AcDb2dVertex
 10
606.2460768469386
 20
116.5200252168979
 30
0.0
  0
VERTEX
  5
3BE
330
2C5
100
AcDbEntity
  8
LAY-1
  6
CONTINUOUS
 62
     3
100
AcDbVertex
100
AcDb2dVertex
 10
606.0615647692777
 20
116.5376178770396
 30
0.0
  0
VERTEX
  5
3BF
330
2C5
100
AcDbEntity
  8
LAY-1
  6
CONTINUOUS
 62
     3
100
AcDbVertex
100
AcDb2dVertex
 10
605.8776256008687
 20
116.5575357369377
 30
0.0
  0
VERTEX
  5
3C0
330
2C5
100
AcDbEntity
  8
LAY-1
  6
CONTINUOUS
 62
     3
100
AcDbVertex
100
AcDb2dVertex
 10
605.6943302547738
 20
116.5797711184404
 30
0.0
  0
VERTEX
  5
3C1
330
2C5
100
AcDbEntity
  8
LAY-1
  6
CONTINUOUS
 62
     3
100
AcDbVertex
100
AcDb2dVertex
 10
605.5117493958835
 20
116.6043154499218
 30
0.0
  0
VERTEX
  5
3C2
330
2C5
100
AcDbEntity
  8
LAY-1
  6
CONTINUOUS
 62
     3
100
AcDbVertex
100
AcDb2dVertex
 10
605.3299534136717
 20
116.6311592695851
 30
0.0
  0
VERTEX
  5
3C3
330
2C5
100
AcDbEntity
  8
LAY-1
  6
CONTINUOUS
 62
     3
100
AcDbVertex
100
AcDb2dVertex
 10
605.1490123950572
 20
116.6602922291089
 30
0.0
  0
VERTEX
  5
3C4
330
2C5
100
AcDbEntity
  8
LAY-1
  6
CONTINUOUS
 62
     3
100
AcDbVertex
100
AcDb2dVertex
 10
604.9689960973835
 20
116.6917030976371
 30
0.0
  0
VERTEX
  5
3C5
330
2C5
100
AcDbEntity
  8
LAY-1
  6
CONTINUOUS
 62
     3
100
AcDbVertex
100
AcDb2dVertex
 10
604.7899739215227
 20
116.7253797661069
 30
0.0
  0
VERTEX
  5
3C6
330
2C5
100
AcDbEntity
  8
LAY-1
  6
CONTINUOUS
 62
     3
100
AcDbVertex
100
AcDb2dVertex
 10
604.6120148851197
 20
116.7613092519168
 30
0.0
  0
VERTEX
  5
3C7
330
2C5
100
AcDbEntity
  8
LAY-1
  6
CONTINUOUS
 62
     3
100
AcDbVertex
100
AcDb2dVertex
 10
604.4351875959816
 20
116.7994777039315
 30
0.0
  0
VERTEX
  5
3C8
330
2C5
100
AcDbEntity
  8
LAY-1
  6
CONTINUOUS
 62
     3
100
AcDbVertex
100
AcDb2dVertex
 10
604.2595602256273
 20
116.8398704078202
 30
0.0
  0
VERTEX
  5
3C9
330
2C5
100
AcDbEntity
  8
LAY-1
  6
CONTINUOUS
 62
     3
100
AcDbVertex
100
AcDb2dVertex
 10
604.0852004830028
 20
116.8824717917298
 30
0.0
  0
VERTEX
  5
3CA
330
2C5
100
AcDbEntity
  8
LAY-1
  6
CONTINUOUS
 62
     3
100
AcDbVertex
100
AcDb2dVertex
 10
603.9121755883779
 20
116.9272654322867
 30
0.0
  0
VERTEX
  5
3CB
330
2C5
100
AcDbEntity
  8
LAY-1
  6
CONTINUOUS
 62
     3
100
AcDbVertex
100
AcDb2dVertex
 10
603.7405522474282
 20
116.9742340609288
 30
0.0
  0
VERTEX
  5
3CC
330
2C5
100
AcDbEntity
  8
LAY-1
  6
CONTINUOUS
 62
     3
100
AcDbVertex
100
AcDb2dVertex
 10
603.5703966255176
 20
117.0233595705617
 30
0.0
  0
VERTEX
  5
3CD
330
2C5
100
AcDbEntity
  8
LAY-1
  6
CONTINUOUS
 62
     3
100
AcDbVertex
100
AcDb2dVertex
 10
603.4017743221874
 20
117.0746230225396
 30
0.0
  0
VERTEX
  5
3CE
330
2C5
100
AcDbEntity
  8
LAY-1
  6
CONTINUOUS
 62
     3
100
AcDbVertex
100
AcDb2dVertex
 10
603.2347503458655
 20
117.1280046539663
 30
0.0
  0
VERTEX
  5
3CF
330
2C5
100
AcDbEntity
  8
LAY-1
  6
CONTINUOUS
 62
     3
100
AcDbVertex
100
AcDb2dVertex
 10
603.0693890888016
 20
117.183483885313
 30
0.0
  0
VERTEX
  5
3D0
330
2C5
100
AcDbEntity
  8
LAY-1
  6
CONTINUOUS
 62
     3
100
AcDbVertex
100
AcDb2dVertex
 10
602.9057543022412
 20
117.2410393283534
 30
0.0
  0
VERTEX
  5
3D1
330
2C5
100
AcDbEntity
  8
LAY-1
  6
CONTINUOUS
 62
     3
100
AcDbVertex
100
AcDb2dVertex
 10
602.7439090718455
 20
117.3006487944077
 30
0.0
  0
VERTEX
  5
3D2
330
2C5
100
AcDbEntity
  8
LAY-1
  6
CONTINUOUS
 62
     3
100
AcDbVertex
100
AcDb2dVertex
 10
602.58391579337
 20
117.3622893028976
 30
0.0
  0
VERTEX
  5
3D3
330
2C5
100
AcDbEntity
  8
LAY-1
  6
CONTINUOUS
 62
     3
100
AcDbVertex
100
AcDb2dVertex
 10
602.4258361486055
 20
117.4259370902058
 30
0.0
  0
VERTEX
  5
3D4
330
2C5
100
AcDbEntity
  8
LAY-1
  6
CONTINUOUS
 62
     3
100
AcDbVertex
100
AcDb2dVertex
 10
602.2697310815992
 20
117.4915676188367
 30
0.0
  0
VERTEX
  5
3D5
330
2C5
100
AcDbEntity
  8
LAY-1
  6
CONTINUOUS
 62
     3
100
AcDbVertex
100
AcDb2dVertex
 10
602.1156607751552
 20
117.5591555868768
 30
0.0
  0
VERTEX
  5
3D6
330
2C5
100
AcDbEntity
  8
LAY-1
  6
CONTINUOUS
 62
     3
100
AcDbVertex
100
AcDb2dVertex
 10
601.9636846276323
 20
117.6286749377489
 30
0.0
  0
VERTEX
  5
3D7
330
2C5
100
AcDbEntity
  8
LAY-1
  6
CONTINUOUS
 62
     3
100
AcDbVertex
100
AcDb2dVertex
 10
601.8138612300421
 20
117.7000988702576
 30
0.0
  0
VERTEX
  5
3D8
330
2C5
100
AcDbEntity
  8
LAY-1
  6
CONTINUOUS
 62
     3
100
AcDbVertex
100
AcDb2dVertex
 10
601.6662483434591
 20
117.7733998489219
 30
0.0
  0
VERTEX
  5
3D9
330
2C5
100
AcDbEntity
  8
LAY-1
  6
CONTINUOUS
 62
     3
100
AcDbVertex
100
AcDb2dVertex
 10
601.520902876751
 20
117.8485496145915
 30
0.0
  0
VERTEX
  5
3DA
330
2C5
100
AcDbEntity
  8
LAY-1
  6
CONTINUOUS
 62
     3
100
AcDbVertex
100
AcDb2dVertex
 10
601.3778808646372
 20
117.9255191953407
 30
0.0
  0
VERTEX
  5
3DB
330
2C5
100
AcDbEntity
  8
LAY-1
  6
CONTINUOUS
 62
     3
100
AcDbVertex
100
AcDb2dVertex
 10
601.2372374460838
 20
118.0042789176384
 30
0.0
  0
VERTEX
  5
3DC
330
2C5
100
AcDbEntity
  8
LAY-1
  6
CONTINUOUS
 62
     3
100
AcDbVertex
100
AcDb2dVertex
 10
601.0990268430451
 20
118.0847984177889
 30
0.0
  0
VERTEX
  5
3DD
330
2C5
100
AcDbEntity
  8
LAY-1
  6
CONTINUOUS
 62
     3
100
AcDbVertex
100
AcDb2dVertex
 10
600.9633023395585
 20
118.167046653637
 30
0.0
  0
VERTEX
  5
3DE
330
2C5
100
AcDbEntity
  8
LAY-1
  6
CONTINUOUS
 62
     3
100
AcDbVertex
100
AcDb2dVertex
 10
600.8301162611995
 20
118.2509919165369
 30
0.0
  0
VERTEX
  5
3DF
330
2C5
100
AcDbEntity
  8
LAY-1
  6
CONTINUOUS
 62
     3
100
AcDbVertex
100
AcDb2dVertex
 10
600.6995199549077
 20
118.3366018435764
 30
0.0
  0
VERTEX
  5
3E0
330
2C5
100
AcDbEntity
  8
LAY-1
  6
CONTINUOUS
 62
     3
100
AcDbVertex
100
AcDb2dVertex
 10
600.5715637691907
 20
118.4238434300546
 30
0.0
  0
VERTEX
  5
3E1
330
2C5
100
AcDbEntity
  8
LAY-1
  6
CONTINUOUS
 62
     3
100
AcDbVertex
100
AcDb2dVertex
 10
600.4462970347112
 20
118.512683042206
 30
0.0
  0
VERTEX
  5
3E2
330
2C5
100
AcDbEntity
  8
LAY-1
  6
CONTINUOUS
 62
     3
100
AcDbVertex
100
AcDb2dVertex
 10
600.323768045267
 20
118.6030864301683
 30
0.0
  0
VERTEX
  5
3E3
330
2C5
100
AcDbEntity
  8
LAY-1
  6
CONTINUOUS
 62
     3
100
AcDbVertex
100
AcDb2dVertex
 10
600.2040240391723
 20
118.6950187411866
 30
0.0
  0
VERTEX
  5
3E4
330
2C5
100
AcDbEntity
  8
LAY-1
  6
CONTINUOUS
 62
     3
100
AcDbVertex
100
AcDb2dVertex
 10
600.0871111810435
 20
118.7884445330507
 30
0.0
  0
VERTEX
  5
3E5
330
2C5
100
AcDbEntity
  8
LAY-1
  6
CONTINUOUS
 62
     3
100
AcDbVertex
100
AcDb2dVertex
 10
599.9730745440016
 20
118.8833277877598
 30
0.0
  0
VERTEX
  5
3E6
330
2C5
100
AcDbEntity
  8
LAY-1
  6
CONTINUOUS
 62
     3
100
AcDbVertex
100
AcDb2dVertex
 10
599.8619580922929
 20
118.979631925409
 30
0.0
  0
VERTEX
  5
3E7
330
2C5
100
AcDbEntity
  8
LAY-1
  6
CONTINUOUS
 62
     3
100
AcDbVertex
100
AcDb2dVertex
 10
599.7538046643389
 20
119.0773198182927
 30
0.0
  0
VERTEX
  5
3E8
330
2C5
100
AcDbEntity
  8
LAY-1
  6
CONTINUOUS
 62
     3
100
AcDbVertex
100
AcDb2dVertex
 10
599.6486559562209
 20
119.1763538052181
 30
0.0
  0
VERTEX
  5
3E9
330
2C5
100
AcDbEntity
  8
LAY-1
  6
CONTINUOUS
 62
     3
100
AcDbVertex
100
AcDb2dVertex
 10
599.5465525056024
 20
119.2766957060262
 30
0.0
  0
VERTEX
  5
3EA
330
2C5
100
AcDbEntity
  8
LAY-1
  6
CONTINUOUS
 62
     3
100
AcDbVertex
100
AcDb2dVertex
 10
599.4475336761006
 20
119.3783068363119
 30
0.0
  0
VERTEX
  5
3EB
330
2C5
100
AcDbEntity
  8
LAY-1
  6
CONTINUOUS
 62
     3
100
AcDbVertex
100
AcDb2dVertex
 10
599.3516376421095
 20
119.4811480223385
 30
0.0
  0
VERTEX
  5
3EC
330
2C5
100
AcDbEntity
  8
LAY-1
  6
CONTINUOUS
 62
     3
100
AcDbVertex
100
AcDb2dVertex
 10
599.2589013740827
 20
119.5851796161407
 30
0.0
  0
VERTEX
  5
3ED
330
2C5
100
AcDbEntity
  8
LAY-1
  6
CONTINUOUS
 62
     3
100
AcDbVertex
100
AcDb2dVertex
 10
599.1693606242774
 20
119.6903615108114
 30
0.0
  0
VERTEX
  5
3EE
330
2C5
100
AcDbEntity
  8
LAY-1
  6
CONTINUOUS
 62
     3
100
AcDbVertex
100
AcDb2dVertex
 10
599.0830499129727
 20
119.7966531559642
 30
0.0
  0
VERTEX
  5
3EF
330
2C5
100
AcDbEntity
  8
LAY-1
  6
CONTINUOUS
 62
     3
100
AcDbVertex
100
AcDb2dVertex
 10
599.000002515159
 20
119.9040135733682
 30
0.0
  0
VERTEX
  5
3F0
330
2C5
100
AcDbEntity
  8
LAY-1
  6
CONTINUOUS
 62
     3
100
AcDbVertex
100
AcDb2dVertex
 10
598.9202504477088
 20
120.0124013727464
 30
0.0
  0
VERTEX
  5
3F1
330
2C5
100
AcDbEntity
  8
LAY-1
  6
CONTINUOUS
 62
     3
100
AcDbVertex
100
AcDb2dVertex
 10
598.8438244570334
 20
120.1217747677341
 30
0.0
  0
VERTEX
  5
3F2
330
2C5
100
AcDbEntity
  8
LAY-1
  6
CONTINUOUS
 62
     3
100
AcDbVertex
100
AcDb2dVertex
 10
598.770754007229
 20
120.2320915919894
 30
0.0
  0
VERTEX
  5
3F3
330
2C5
100
AcDbEntity
  8
LAY-1
  6
CONTINUOUS
 62
     3
100
AcDbVertex
100
AcDb2dVertex
 10
598.7010672687163
 20
120.3433093154505
 30
0.0
  0
VERTEX
  5
3F4
330
2C5
100
AcDbEntity
  8
LAY-1
  6
CONTINUOUS
 62
     3
100
AcDbVertex
100
AcDb2dVertex
 10
598.6347911073807
 20
120.4553850607331
 30
0.0
  0
VERTEX
  5
3F5
330
2C5
100
AcDbEntity
  8
LAY-1
  6
CONTINUOUS
 62
     3
100
AcDbVertex
100
AcDb2dVertex
 10
598.5719510742133
 20
120.5682756196618
 30
0.0
  0
VERTEX
  5
3F6
330
2C5
100
AcDbEntity
  8
LAY-1
  6
CONTINUOUS
 62
     3
100
AcDbVertex
100
AcDb2dVertex
 10
598.5125713954611
 20
120.6819374699286
 30
0.0
  0
VERTEX
  5
3F7
330
2C5
100
AcDbEntity
  8
LAY-1
  6
CONTINUOUS
 62
     3
100
AcDbVertex
100
AcDb2dVertex
 10
598.4566749632867
 20
120.7963267918733
 30
0.0
  0
VERTEX
  5
3F8
330
2C5
100
AcDbEntity
  8
LAY-1
  6
CONTINUOUS
 62
     3
100
AcDbVertex
100
AcDb2dVertex
 10
598.4042833269422
 20
120.9113994853781
 30
0.0
  0
VERTEX
  5
3F9
330
2C5
100
AcDbEntity
  8
LAY-1
  6
CONTINUOUS
 62
     3
100
AcDbVertex
100
AcDb2dVertex
 10
598.3554166844623
 20
121.0271111868699
 30
0.0
  0
VERTEX
  5
3FA
330
2C5
100
AcDbEntity
  8
LAY-1
  6
CONTINUOUS
 62
     3
100
AcDbVertex
100
AcDb2dVertex
 10
598.3100938748762
 20
121.1434172864256
 30
0.0
  0
VERTEX
  5
3FB
330
2C5
100
AcDbEntity
  8
LAY-1
  6
CONTINUOUS
 62
     3
100
AcDbVertex
100
AcDb2dVertex
 10
598.2683323709464
 20
121.26027294497
 30
0.0
  0
VERTEX
  5
3FC
330
2C5
100
AcDbEntity
  8
LAY-1
  6
CONTINUOUS
 62
     3
100
AcDbVertex
100
AcDb2dVertex
 10
598.2301482724313
 20
121.3776331115649
 30
0.0
  0
VERTEX
  5
3FD
330
2C5
100
AcDbEntity
  8
LAY-1
  6
CONTINUOUS
 62
     3
100
AcDbVertex
100
AcDb2dVertex
 10
598.1955562998793
 20
121.4954525407772
 30
0.0
  0
VERTEX
  5
3FE
330
2C5
100
AcDbEntity
  8
LAY-1
  6
CONTINUOUS
 62
     3
100
AcDbVertex
100
AcDb2dVertex
 10
598.1645697889533
 20
121.613685810124
 30
0.0
  0
VERTEX
  5
3FF
330
2C5
100
AcDbEntity
  8
LAY-1
  6
CONTINUOUS
 62
     3
100
AcDbVertex
100
AcDb2dVertex
 10
598.1372006852913
 20
121.732287337585
 30
0.0
  0
VERTEX
  5
400
330
2C5
100
AcDbEntity
  8
LAY-1
  6
CONTINUOUS
 62
     3
100
AcDbVertex
100
AcDb2dVertex
 10
598.1134595398995
 20
121.8512113991761
 30
0.0
  0
VERTEX
  5
401
330
2C5
100
AcDbEntity
  8
LAY-1
  6
CONTINUOUS
 62
     3
100
AcDbVertex
100
AcDb2dVertex
 10
598.093355505087
 20
121.9704121465787
 30
0.0
  0
VERTEX
  5
402
330
2C5
100
AcDbEntity
  8
LAY-1
  6
CONTINUOUS
 62
     3
100
AcDbVertex
100
AcDb2dVertex
 10
598.0768963309366
 20
122.0898436248158
 30
0.0
  0
VERTEX
  5
403
330
2C5
100
AcDbEntity
  8
LAY-1
  6
CONTINUOUS
 62
     3
100
AcDbVertex
100
AcDb2dVertex
 10
598.0640883623188
 20
122.2094597899708
 30
0.0
  0
VERTEX
  5
404
330
2C5
100
AcDbEntity
  8
LAY-1
  6
CONTINUOUS
 62
     3
100
AcDbVertex
100
AcDb2dVertex
 10
598.0549365364451
 20
122.329214526938
 30
0.0
  0
VERTEX
  5
405
330
2C5
100
AcDbEntity
  8
LAY-1
  6
CONTINUOUS
 62
     3
100
AcDbVertex
100
AcDb2dVertex
 10
598.0494443809666
 20
122.4490616672036
 30
0.0
  0
VERTEX
  5
406
330
2C5
100
AcDbEntity
  8
LAY-1
  6
CONTINUOUS
 62
     3
100
AcDbVertex
100
AcDb2dVertex
 10
598.0476140126145
 20
122.5689550066447
 30
0.0
  0
SEQEND
  5
407
330
2C5
100
AcDbEntity
  8
LAY-1
  6
CONTINUOUS
 62
     3
  0
LINE
  5
408
330
1F
100
AcDbEntity
  8
LAY-1
  6
CONTINUOUS
 62
     3
100
AcDbLine
 10
618.14358601436
 20
127.75401063542
 30
0.0
 11
618.14358601436
 21
120.74393793643
 31
0.0
  0
LINE
  5
409
330
1F
100
AcDbEntity
  8
LAY-1
  6
CONTINUOUS
 62
     3
100
AcDbLine
 10
596.95178679248
 20
131.40404429802
 30
0.0
 11
596.95178679248
 21
124.39397159904
 31
0.0
  0
LINE
  5
40A
330
1F
100
AcDbEntity
  8
LAY-1
  6
CONTINUOUS
 62
     3
100
AcDbLine
 10
615.3045423884
 20
134.56493491147
 30
0.0
 11
604.70853226795
 21
136.38986470328
 31
0.0
  0
LINE
  5
40B
330
1F
100
AcDbEntity
  8
LAY-1
  6
CONTINUOUS
 62
     3
100
AcDbLine
 10
604.70853226795
 20
129.3797920043
 30
0.0
 11
604.70853226795
 21
136.38986470328
 31
0.0
  0
LINE
  5
40C
330
1F
100
AcDbEntity
  8
LAY-1
  6
CONTINUOUS
 62
     3
100
AcDbLine
 10
596.9517867924761
 20
131.4040442980157
 30
0.0
 11
604.7085322679299
 21
136.3898647032829
 31
0.0
  0
LINE
  5
40D
330
1F
100
AcDbEntity
  8
LAY-1
  6
CONTINUOUS
 62
     3
100
AcDbLine
 10
615.3045423884
 20
134.56493491147
 30
0.0
 11
618.14358601436
 21
127.75401063542
 31
0.0
  0
LINE
  5
40E
330
1F
100
AcDbEntity
  8
LAY-1
  6
CONTINUOUS
 62
     3
100
AcDbLine
 10
615.3045423884
 20
134.56493491147
 30
0.0
 11
615.3045423884
 21
127.55486221249
 31
0.0
  0
LINE
  5
40F
330
1F
100
AcDbEntity
  8
LAY-1
  6
CONTINUOUS
 62
     3
100
AcDbLine
 10
529.0481395411139
 20
63.47445377715195
 30
0.0
 11
521.2913927785875
 21
58.48861233975526
 31
0.0
  0
LINE
  5
410
330
1F
100
AcDbEntity
  8
LAY-1
  6
CONTINUOUS
 62
     3
100
AcDbLine
 10
507.8564502032342
 20
67.12445040055269
 30
0.0
 11
515.6130778384498
 21
72.11040200419274
 31
0.0
  0
LINE
  5
411
330
1F
100
AcDbEntity
  8
LAY-1
  6
CONTINUOUS
 62
     3
100
AcDbLine
 10
526.2092424060668
 20
70.2854446129208
 30
0.0
 11
515.6130778384498
 21
72.11040200419274
 31
0.0
  0
LINE
  5
412
330
1F
100
AcDbEntity
  8
LAY-1
  6
CONTINUOUS
 62
     3
100
AcDbLine
 10
526.2092424060668
 20
70.2854446129208
 30
0.0
 11
529.0481826741081
 21
63.47442605161461
 31
0.0
  0
LINE
  5
413
330
1F
100
AcDbEntity
  8
LAY-1
  6
CONTINUOUS
 62
     3
100
AcDbLine
 10
521.2914359114762
 20
58.4885846147497
 30
0.0
 11
510.6955865759913
 21
60.31352612451093
 31
0.0
  0
LINE
  5
414
330
1F
100
AcDbEntity
  8
LAY-1
  6
CONTINUOUS
 62
     3
100
AcDbLine
 10
510.695662234941
 20
60.31357475708876
 30
0.0
 11
507.8564502032342
 21
67.12445040055269
 31
0.0
  0
POLYLINE
  5
415
330
1F
100
AcDbEntity
  8
LAY-1
  6
CONTINUOUS
 62
     3
100
AcDb2dPolyline
 66
     1
 10
0.0
 20
0.0
 30
0.0
 70
   128
  0
VERTEX
  5
416
330
415
100
AcDbEntity
  8
LAY-1
  6
CONTINUOUS
 62
     3
100
AcDbVertex
100
AcDb2dVertex
 10
527.9523388036233
 20
65.29944959509544
 30
0.0
  0
VERTEX
  5
417
330
415
100
AcDbEntity
  8
LAY-1
  6
CONTINUOUS
 62
     3
100
AcDbVertex
100
AcDb2dVertex
 10
527.9505098532519
 20
65.41934262042116
 30
0.0
  0
VERTEX
  5
418
330
415
100
AcDbEntity
  8
LAY-1
  6
CONTINUOUS
 62
     3
100
AcDbVertex
100
AcDb2dVertex
 10
527.9450191575208
 20
65.53918947801895
 30
0.0
  0
VERTEX
  5
419
330
415
100
AcDbEntity
  8
LAY-1
  6
CONTINUOUS
 62
     3
100
AcDbVertex
100
AcDb2dVertex
 10
527.9358688306883
 20
65.65894396434061
 30
0.0
  0
VERTEX
  5
41A
330
415
100
AcDbEntity
  8
LAY-1
  6
CONTINUOUS
 62
     3
100
AcDbVertex
100
AcDb2dVertex
 10
527.9230623978898
 20
65.77855991138591
 30
0.0
  0
VERTEX
  5
41B
330
415
100
AcDbEntity
  8
LAY-1
  6
CONTINUOUS
 62
     3
100
AcDbVertex
100
AcDb2dVertex
 10
527.9066047937847
 20
65.89799120450152
 30
0.0
  0
VERTEX
  5
41C
330
415
100
AcDbEntity
  8
LAY-1
  6
CONTINUOUS
 62
     3
100
AcDbVertex
100
AcDb2dVertex
 10
527.8865023606551
 20
66.01719180015971
 30
0.0
  0
VERTEX
  5
41D
330
415
100
AcDbEntity
  8
LAY-1
  6
CONTINUOUS
 62
     3
100
AcDbVertex
100
AcDb2dVertex
 10
527.8627628459669
 20
66.13611574371009
 30
0.0
  0
VERTEX
  5
41E
330
415
100
AcDbEntity
  8
LAY-1
  6
CONTINUOUS
 62
     3
100
AcDbVertex
100
AcDb2dVertex
 10
527.8353953993852
 20
66.25471718709662
 30
0.0
  0
VERTEX
  5
41F
330
415
100
AcDbEntity
  8
LAY-1
  6
CONTINUOUS
 62
     3
100
AcDbVertex
100
AcDb2dVertex
 10
527.804410569252
 20
66.37295040653373
 30
0.0
  0
VERTEX
  5
420
330
415
100
AcDbEntity
  8
LAY-1
  6
CONTINUOUS
 62
     3
100
AcDbVertex
100
AcDb2dVertex
 10
527.7698202985207
 20
66.49076982013509
 30
0.0
  0
VERTEX
  5
421
330
415
100
AcDbEntity
  8
LAY-1
  6
CONTINUOUS
 62
     3
100
AcDbVertex
100
AcDb2dVertex
 10
527.7316379201585
 20
66.60813000548706
 30
0.0
  0
VERTEX
  5
422
330
415
100
AcDbEntity
  8
LAY-1
  6
CONTINUOUS
 62
     3
100
AcDbVertex
100
AcDb2dVertex
 10
527.6898781520076
 20
66.72498571716159
 30
0.0
  0
VERTEX
  5
423
330
415
100
AcDbEntity
  8
LAY-1
  6
CONTINUOUS
 62
     3
100
AcDbVertex
100
AcDb2dVertex
 10
527.6445570911153
 20
66.84129190415968
 30
0.0
  0
VERTEX
  5
424
330
415
100
AcDbEntity
  8
LAY-1
  6
CONTINUOUS
 62
     3
100
AcDbVertex
100
AcDb2dVertex
 10
527.5956922075316
 20
66.95700372728174
 30
0.0
  0
VERTEX
  5
425
330
415
100
AcDbEntity
  8
LAY-1
  6
CONTINUOUS
 62
     3
100
AcDbVertex
100
AcDb2dVertex
 10
527.543302337577
 20
67.07207657641487
 30
0.0
  0
VERTEX
  5
426
330
415
100
AcDbEntity
  8
LAY-1
  6
CONTINUOUS
 62
     3
100
AcDbVertex
100
AcDb2dVertex
 10
527.4874076765848
 20
67.18646608773241
 30
0.0
  0
VERTEX
  5
427
330
415
100
AcDbEntity
  8
LAY-1
  6
CONTINUOUS
 62
     3
100
AcDbVertex
100
AcDb2dVertex
 10
527.4280297711168
 20
67.3001281607988
 30
0.0
  0
VERTEX
  5
428
330
415
100
AcDbEntity
  8
LAY-1
  6
CONTINUOUS
 62
     3
100
AcDbVertex
100
AcDb2dVertex
 10
527.3651915106615
 20
67.41301897557298
 30
0.0
  0
VERTEX
  5
429
330
415
100
AcDbEntity
  8
LAY-1
  6
CONTINUOUS
 62
     3
100
AcDbVertex
100
AcDb2dVertex
 10
527.2989171188109
 20
67.52509500930336
 30
0.0
  0
VERTEX
  5
42A
330
415
100
AcDbEntity
  8
LAY-1
  6
CONTINUOUS
 62
     3
100
AcDbVertex
100
AcDb2dVertex
 10
527.2292321439261
 20
67.63631305330875
 30
0.0
  0
VERTEX
  5
42B
330
415
100
AcDbEntity
  8
LAY-1
  6
CONTINUOUS
 62
     3
100
AcDbVertex
100
AcDb2dVertex
 10
527.1561634492888
 20
67.74663022963773
 30
0.0
  0
VERTEX
  5
42C
330
415
100
AcDbEntity
  8
LAY-1
  6
CONTINUOUS
 62
     3
100
AcDbVertex
100
AcDb2dVertex
 10
527.0797392027492
 20
67.85600400760131
 30
0.0
  0
VERTEX
  5
42D
330
415
100
AcDbEntity
  8
LAY-1
  6
CONTINUOUS
 62
     3
100
AcDbVertex
100
AcDb2dVertex
 10
526.9999888658679
 20
67.96439222017102
 30
0.0
  0
VERTEX
  5
42E
330
415
100
AcDbEntity
  8
LAY-1
  6
CONTINUOUS
 62
     3
100
AcDbVertex
100
AcDb2dVertex
 10
526.9169431825605
 20
68.07175308023704
 30
0.0
  0
VERTEX
  5
42F
330
415
100
AcDbEntity
  8
LAY-1
  6
CONTINUOUS
 62
     3
100
AcDbVertex
100
AcDb2dVertex
 10
526.8306341672475
 20
68.17804519672069
 30
0.0
  0
VERTEX
  5
430
330
415
100
AcDbEntity
  8
LAY-1
  6
CONTINUOUS
 62
     3
100
AcDbVertex
100
AcDb2dVertex
 10
526.7410950925137
 20
68.28322759053316
 30
0.0
  0
VERTEX
  5
431
330
415
100
AcDbEntity
  8
LAY-1
  6
CONTINUOUS
 62
     3
100
AcDbVertex
100
AcDb2dVertex
 10
526.6483604762832
 20
68.38725971037593
 30
0.0
  0
VERTEX
  5
432
330
415
100
AcDbEntity
  8
LAY-1
  6
CONTINUOUS
 62
     3
100
AcDbVertex
100
AcDb2dVertex
 10
526.552466068514
 20
68.49010144837683
 30
0.0
  0
VERTEX
  5
433
330
415
100
AcDbEntity
  8
LAY-1
  6
CONTINUOUS
 62
     3
100
AcDbVertex
100
AcDb2dVertex
 10
526.4534488374161
 20
68.5917131555542
 30
0.0
  0
VERTEX
  5
434
330
415
100
AcDbEntity
  8
LAY-1
  6
CONTINUOUS
 62
     3
100
AcDbVertex
100
AcDb2dVertex
 10
526.3513469552023
 20
68.69205565710507
 30
0.0
  0
VERTEX
  5
435
330
415
100
AcDbEntity
  8
LAY-1
  6
CONTINUOUS
 62
     3
100
AcDbVertex
100
AcDb2dVertex
 10
526.2461997833725
 20
68.79109026751001
 30
0.0
  0
VERTEX
  5
436
330
415
100
AcDbEntity
  8
LAY-1
  6
CONTINUOUS
 62
     3
100
AcDbVertex
100
AcDb2dVertex
 10
526.1380478575405
 20
68.8887788054493
 30
0.0
  0
VERTEX
  5
437
330
415
100
AcDbEntity
  8
LAY-1
  6
CONTINUOUS
 62
     3
100
AcDbVertex
100
AcDb2dVertex
 10
526.0269328718078
 20
68.98508360852583
 30
0.0
  0
VERTEX
  5
438
330
415
100
AcDbEntity
  8
LAY-1
  6
CONTINUOUS
 62
     3
100
AcDbVertex
100
AcDb2dVertex
 10
525.9128976626904
 20
69.07996754778617
 30
0.0
  0
VERTEX
  5
439
330
415
100
AcDbEntity
  8
LAY-1
  6
CONTINUOUS
 62
     3
100
AcDbVertex
100
AcDb2dVertex
 10
525.7959861926053
 20
69.1733940420375
 30
0.0
  0
VERTEX
  5
43A
330
415
100
AcDbEntity
  8
LAY-1
  6
CONTINUOUS
 62
     3
100
AcDbVertex
100
AcDb2dVertex
 10
525.6762435329221
 20
69.2653270719531
 30
0.0
  0
VERTEX
  5
43B
330
415
100
AcDbEntity
  8
LAY-1
  6
CONTINUOUS
 62
     3
100
AcDbVertex
100
AcDb2dVertex
 10
525.553715846588
 20
69.3557311939602
 30
0.0
  0
VERTEX
  5
43C
330
415
100
AcDbEntity
  8
LAY-1
  6
CONTINUOUS
 62
     3
100
AcDbVertex
100
AcDb2dVertex
 10
525.428450370332
 20
69.44457155390785
 30
0.0
  0
VERTEX
  5
43D
330
415
100
AcDbEntity
  8
LAY-1
  6
CONTINUOUS
 62
     3
100
AcDbVertex
100
AcDb2dVertex
 10
525.3004953964526
 20
69.53181390050503
 30
0.0
  0
VERTEX
  5
43E
330
415
100
AcDbEntity
  8
LAY-1
  6
CONTINUOUS
 62
     3
100
AcDbVertex
100
AcDb2dVertex
 10
525.1699002542013
 20
69.61742459852871
 30
0.0
  0
VERTEX
  5
43F
330
415
100
AcDbEntity
  8
LAY-1
  6
CONTINUOUS
 62
     3
100
AcDbVertex
100
AcDb2dVertex
 10
525.0367152907646
 20
69.70137064179335
 30
0.0
  0
VERTEX
  5
440
330
415
100
AcDbEntity
  8
LAY-1
  6
CONTINUOUS
 62
     3
100
AcDbVertex
100
AcDb2dVertex
 10
524.9009918518541
 20
69.78361966587704
 30
0.0
  0
VERTEX
  5
441
330
415
100
AcDbEntity
  8
LAY-1
  6
CONTINUOUS
 62
     3
100
AcDbVertex
100
AcDb2dVertex
 10
524.7627822619107
 20
69.86413996060236
 30
0.0
  0
VERTEX
  5
442
330
415
100
AcDbEntity
  8
LAY-1
  6
CONTINUOUS
 62
     3
100
AcDbVertex
100
AcDb2dVertex
 10
524.6221398039319
 20
69.9429004822627
 30
0.0
  0
VERTEX
  5
443
330
415
100
AcDbEntity
  8
LAY-1
  6
CONTINUOUS
 62
     3
100
AcDbVertex
100
AcDb2dVertex
 10
524.4791186989299
 20
70.01987086559313
 30
0.0
  0
VERTEX
  5
444
330
415
100
AcDbEntity
  8
LAY-1
  6
CONTINUOUS
 62
     3
100
AcDbVertex
100
AcDb2dVertex
 10
524.333774085026
 20
70.09502143547945
 30
0.0
  0
VERTEX
  5
445
330
415
100
AcDbEntity
  8
LAY-1
  6
CONTINUOUS
 62
     3
100
AcDbVertex
100
AcDb2dVertex
 10
524.1861619961945
 20
70.1683232184003
 30
0.0
  0
VERTEX
  5
446
330
415
100
AcDbEntity
  8
LAY-1
  6
CONTINUOUS
 62
     3
100
AcDbVertex
100
AcDb2dVertex
 10
524.0363393406578
 20
70.23974795360004
 30
0.0
  0
VERTEX
  5
447
330
415
100
AcDbEntity
  8
LAY-1
  6
CONTINUOUS
 62
     3
100
AcDbVertex
100
AcDb2dVertex
 10
523.8843638789457
 20
70.30926810398557
 30
0.0
  0
VERTEX
  5
448
330
415
100
AcDbEntity
  8
LAY-1
  6
CONTINUOUS
 62
     3
100
AcDbVertex
100
AcDb2dVertex
 10
523.730294201627
 20
70.37685686674519
 30
0.0
  0
VERTEX
  5
449
330
415
100
AcDbEntity
  8
LAY-1
  6
CONTINUOUS
 62
     3
100
AcDbVertex
100
AcDb2dVertex
 10
523.5741897067194
 20
70.44248818368368
 30
0.0
  0
VERTEX
  5
44A
330
415
100
AcDbEntity
  8
LAY-1
  6
CONTINUOUS
 62
     3
100
AcDbVertex
100
AcDb2dVertex
 10
523.4161105767882
 20
70.50613675127045
 30
0.0
  0
VERTEX
  5
44B
330
415
100
AcDbEntity
  8
LAY-1
  6
CONTINUOUS
 62
     3
100
AcDbVertex
100
AcDb2dVertex
 10
523.2561177557435
 20
70.5677780303966
 30
0.0
  0
VERTEX
  5
44C
330
415
100
AcDbEntity
  8
LAY-1
  6
CONTINUOUS
 62
     3
100
AcDbVertex
100
AcDb2dVertex
 10
523.0942729253424
 20
70.62738825583745
 30
0.0
  0
VERTEX
  5
44D
330
415
100
AcDbEntity
  8
LAY-1
  6
CONTINUOUS
 62
     3
100
AcDbVertex
100
AcDb2dVertex
 10
522.9306384814075
 20
70.68494444541676
 30
0.0
  0
VERTEX
  5
44E
330
415
100
AcDbEntity
  8
LAY-1
  6
CONTINUOUS
 62
     3
100
AcDbVertex
100
AcDb2dVertex
 10
522.7652775097696
 20
70.7404244088682
 30
0.0
  0
VERTEX
  5
44F
330
415
100
AcDbEntity
  8
LAY-1
  6
CONTINUOUS
 62
     3
100
AcDbVertex
100
AcDb2dVertex
 10
522.5982537619446
 20
70.79380675639277
 30
0.0
  0
VERTEX
  5
450
330
415
100
AcDbEntity
  8
LAY-1
  6
CONTINUOUS
 62
     3
100
AcDbVertex
100
AcDb2dVertex
 10
522.4296316305532
 20
70.84507090690624
 30
0.0
  0
VERTEX
  5
451
330
415
100
AcDbEntity
  8
LAY-1
  6
CONTINUOUS
 62
     3
100
AcDbVertex
100
AcDb2dVertex
 10
522.2594761244936
 20
70.89419709597593
 30
0.0
  0
VERTEX
  5
452
330
415
100
AcDbEntity
  8
LAY-1
  6
CONTINUOUS
 62
     3
100
AcDbVertex
100
AcDb2dVertex
 10
522.0878528438769
 20
70.94116638344161
 30
0.0
  0
VERTEX
  5
453
330
415
100
AcDbEntity
  8
LAY-1
  6
CONTINUOUS
 62
     3
100
AcDbVertex
100
AcDb2dVertex
 10
521.9148279547333
 20
70.98596066071883
 30
0.0
  0
VERTEX
  5
454
330
415
100
AcDbEntity
  8
LAY-1
  6
CONTINUOUS
 62
     3
100
AcDbVertex
100
AcDb2dVertex
 10
521.7404681635007
 20
71.02856265778229
 30
0.0
  0
VERTEX
  5
455
330
415
100
AcDbEntity
  8
LAY-1
  6
CONTINUOUS
 62
     3
100
AcDbVertex
100
AcDb2dVertex
 10
521.5648406913065
 20
71.06895594982473
 30
0.0
  0
VERTEX
  5
456
330
415
100
AcDbEntity
  8
LAY-1
  6
CONTINUOUS
 62
     3
100
AcDbVertex
100
AcDb2dVertex
 10
521.3880132480473
 20
71.10712496359076
 30
0.0
  0
VERTEX
  5
457
330
415
100
AcDbEntity
  8
LAY-1
  6
CONTINUOUS
 62
     3
100
AcDbVertex
100
AcDb2dVertex
 10
521.2100540062831
 20
71.14305498338172
 30
0.0
  0
VERTEX
  5
458
330
415
100
AcDbEntity
  8
LAY-1
  6
CONTINUOUS
 62
     3
100
AcDbVertex
100
AcDb2dVertex
 10
521.0310315749524
 20
71.1767321567304
 30
0.0
  0
VERTEX
  5
459
330
415
100
AcDbEntity
  8
LAY-1
  6
CONTINUOUS
 62
     3
100
AcDbVertex
100
AcDb2dVertex
 10
520.8510149729179
 20
71.20814349974245
 30
0.0
  0
VERTEX
  5
45A
330
415
100
AcDbEntity
  8
LAY-1
  6
CONTINUOUS
 62
     3
100
AcDbVertex
100
AcDb2dVertex
 10
520.6700736023555
 20
71.23727690210302
 30
0.0
  0
VERTEX
  5
45B
330
415
100
AcDbEntity
  8
LAY-1
  6
CONTINUOUS
 62
     3
100
AcDbVertex
100
AcDb2dVertex
 10
520.4882772219942
 20
71.26412113174638
 30
0.0
  0
VERTEX
  5
45C
330
415
100
AcDbEntity
  8
LAY-1
  6
CONTINUOUS
 62
     3
100
AcDbVertex
100
AcDb2dVertex
 10
520.3056959202191
 20
71.28866583918739
 30
0.0
  0
VERTEX
  5
45D
330
415
100
AcDbEntity
  8
LAY-1
  6
CONTINUOUS
 62
     3
100
AcDbVertex
100
AcDb2dVertex
 10
520.1224000880485
 20
71.31090156151168
 30
0.0
  0
VERTEX
  5
45E
330
415
100
AcDbEntity
  8
LAY-1
  6
CONTINUOUS
 62
     3
100
AcDbVertex
100
AcDb2dVertex
 10
519.9384603919913
 20
71.33081972602508
 30
0.0
  0
VERTEX
  5
45F
330
415
100
AcDbEntity
  8
LAY-1
  6
CONTINUOUS
 62
     3
100
AcDbVertex
100
AcDb2dVertex
 10
519.7539477468009
 20
71.34841265355868
 30
0.0
  0
VERTEX
  5
460
330
415
100
AcDbEntity
  8
LAY-1
  6
CONTINUOUS
 62
     3
100
AcDbVertex
100
AcDb2dVertex
 10
519.5689332881324
 20
71.36367356143012
 30
0.0
  0
VERTEX
  5
461
330
415
100
AcDbEntity
  8
LAY-1
  6
CONTINUOUS
 62
     3
100
AcDbVertex
100
AcDb2dVertex
 10
519.3834883451143
 20
71.3765965660586
 30
0.0
  0
VERTEX
  5
462
330
415
100
AcDbEntity
  8
LAY-1
  6
CONTINUOUS
 62
     3
100
AcDbVertex
100
AcDb2dVertex
 10
519.1976844128458
 20
71.3871766852339
 30
0.0
  0
VERTEX
  5
463
330
415
100
AcDbEntity
  8
LAY-1
  6
CONTINUOUS
 62
     3
100
AcDbVertex
100
AcDb2dVertex
 10
519.0115931248299
 20
71.39540984003673
 30
0.0
  0
VERTEX
  5
464
330
415
100
AcDbEntity
  8
LAY-1
  6
CONTINUOUS
 62
     3
100
AcDbVertex
100
AcDb2dVertex
 10
518.8252862253544
 20
71.40129285641177
 30
0.0
  0
VERTEX
  5
465
330
415
100
AcDbEntity
  8
LAY-1
  6
CONTINUOUS
 62
     3
100
AcDbVertex
100
AcDb2dVertex
 10
518.6388355418281
 20
71.40482346639152
 30
0.0
  0
VERTEX
  5
466
330
415
100
AcDbEntity
  8
LAY-1
  6
CONTINUOUS
 62
     3
100
AcDbVertex
100
AcDb2dVertex
 10
518.4523129570866
 20
71.40600030896991
 30
0.0
  0
VERTEX
  5
467
330
415
100
AcDbEntity
  8
LAY-1
  6
CONTINUOUS
 62
     3
100
AcDbVertex
100
AcDb2dVertex
 10
518.265790381676
 20
71.4048229306274
 30
0.0
  0
VERTEX
  5
468
330
415
100
AcDbEntity
  8
LAY-1
  6
CONTINUOUS
 62
     3
100
AcDbVertex
100
AcDb2dVertex
 10
518.079339726126
 20
71.40129178550546
 30
0.0
  0
VERTEX
  5
469
330
415
100
AcDbEntity
  8
LAY-1
  6
CONTINUOUS
 62
     3
100
AcDbVertex
100
AcDb2dVertex
 10
517.8930328732233
 20
71.39540823523078
 30
0.0
  0
VERTEX
  5
46A
330
415
100
AcDbEntity
  8
LAY-1
  6
CONTINUOUS
 62
     3
100
AcDbVertex
100
AcDb2dVertex
 10
517.7069416502957
 20
71.38717454839042
 30
0.0
  0
VERTEX
  5
46B
330
415
100
AcDbEntity
  8
LAY-1
  6
CONTINUOUS
 62
     3
100
AcDbVertex
100
AcDb2dVertex
 10
517.5211378015167
 20
71.37659389965603
 30
0.0
  0
VERTEX
  5
46C
330
415
100
AcDbEntity
  8
LAY-1
  6
CONTINUOUS
 62
     3
100
AcDbVertex
100
AcDb2dVertex
 10
517.3356929602443
 20
71.36367036855995
 30
0.0
  0
VERTEX
  5
46D
330
415
100
AcDbEntity
  8
LAY-1
  6
CONTINUOUS
 62
     3
100
AcDbVertex
100
AcDb2dVertex
 10
517.1506786213998
 20
71.34840893792125
 30
0.0
  0
VERTEX
  5
46E
330
415
100
AcDbEntity
  8
LAY-1
  6
CONTINUOUS
 62
     3
100
AcDbVertex
100
AcDb2dVertex
 10
516.9661661139021
 20
71.330815491924
 30
0.0
  0
VERTEX
  5
46F
330
415
100
AcDbEntity
  8
LAY-1
  6
CONTINUOUS
 62
     3
100
AcDbVertex
100
AcDb2dVertex
 10
516.7822265731658
 20
71.31089681384782
 30
0.0
  0
VERTEX
  5
470
330
415
100
AcDbEntity
  8
LAY-1
  6
CONTINUOUS
 62
     3
100
AcDbVertex
100
AcDb2dVertex
 10
516.5989309136723
 20
71.2886605834521
 30
0.0
  0
VERTEX
  5
471
330
415
100
AcDbEntity
  8
LAY-1
  6
CONTINUOUS
 62
     3
100
AcDbVertex
100
AcDb2dVertex
 10
516.4163498016294
 20
71.2641153740139
 30
0.0
  0
VERTEX
  5
472
330
415
100
AcDbEntity
  8
LAY-1
  6
CONTINUOUS
 62
     3
100
AcDbVertex
100
AcDb2dVertex
 10
516.2345536277222
 20
71.23727064902135
 30
0.0
  0
VERTEX
  5
473
330
415
100
AcDbEntity
  8
LAY-1
  6
CONTINUOUS
 62
     3
100
AcDbVertex
100
AcDb2dVertex
 10
516.0536124799748
 20
71.20813675852446
 30
0.0
  0
VERTEX
  5
474
330
415
100
AcDbEntity
  8
LAY-1
  6
CONTINUOUS
 62
     3
100
AcDbVertex
100
AcDb2dVertex
 10
515.8735961167258
 20
71.17672493514334
 30
0.0
  0
VERTEX
  5
475
330
415
100
AcDbEntity
  8
LAY-1
  6
CONTINUOUS
 62
     3
100
AcDbVertex
100
AcDb2dVertex
 10
515.694573939732
 20
71.14304728973644
 30
0.0
  0
VERTEX
  5
476
330
415
100
AcDbEntity
  8
LAY-1
  6
CONTINUOUS
 62
     3
100
AcDbVertex
100
AcDb2dVertex
 10
515.51661496741
 20
71.10711680672983
 30
0.0
  0
VERTEX
  5
477
330
415
100
AcDbEntity
  8
LAY-1
  6
CONTINUOUS
 62
     3
100
AcDbVertex
100
AcDb2dVertex
 10
515.3397878082242
 20
71.06894733911014
 30
0.0
  0
VERTEX
  5
478
330
415
100
AcDbEntity
  8
LAY-1
  6
CONTINUOUS
 62
     3
100
AcDbVertex
100
AcDb2dVertex
 10
515.1641606342356
 20
71.02855360308217
 30
0.0
  0
VERTEX
  5
479
330
415
100
AcDbEntity
  8
LAY-1
  6
CONTINUOUS
 62
     3
100
AcDbVertex
100
AcDb2dVertex
 10
514.9898011548162
 20
70.98595117239341
 30
0.0
  0
VERTEX
  5
47A
330
415
100
AcDbEntity
  8
LAY-1
  6
CONTINUOUS
 62
     3
100
AcDbVertex
100
AcDb2dVertex
 10
514.8167765905431
 20
70.94115647232888
 30
0.0
  0
VERTEX
  5
47B
330
415
100
AcDbEntity
  8
LAY-1
  6
CONTINUOUS
 62
     3
100
AcDbVertex
100
AcDb2dVertex
 10
514.6451536472819
 20
70.89418677337636
 30
0.0
  0
VERTEX
  5
47C
330
415
100
AcDbEntity
  8
LAY-1
  6
CONTINUOUS
 62
     3
100
AcDbVertex
100
AcDb2dVertex
 10
514.4749984904669
 20
70.8450601845667
 30
0.0
  0
VERTEX
  5
47D
330
415
100
AcDbEntity
  8
LAY-1
  6
CONTINUOUS
 62
     3
100
AcDbVertex
100
AcDb2dVertex
 10
514.3063767195912
 20
70.79379564649003
 30
0.0
  0
VERTEX
  5
47E
330
415
100
AcDbEntity
  8
LAY-1
  6
CONTINUOUS
 62
     3
100
AcDbVertex
100
AcDb2dVertex
 10
514.1393533429143
 20
70.7404129239921
 30
0.0
  0
VERTEX
  5
47F
330
415
100
AcDbEntity
  8
LAY-1
  6
CONTINUOUS
 62
     3
100
AcDbVertex
100
AcDb2dVertex
 10
513.9739927523993
 20
70.68493259855228
 30
0.0
  0
VERTEX
  5
480
330
415
100
AcDbEntity
  8
LAY-1
  6
CONTINUOUS
 62
     3
100
AcDbVertex
100
AcDb2dVertex
 10
513.8103586988844
 20
70.62737606034676
 30
0.0
  0
VERTEX
  5
481
330
415
100
AcDbEntity
  8
LAY-1
  6
CONTINUOUS
 62
     3
100
AcDbVertex
100
AcDb2dVertex
 10
513.6485142675059
 20
70.56776549999984
 30
0.0
  0
VERTEX
  5
482
330
415
100
AcDbEntity
  8
LAY-1
  6
CONTINUOUS
 62
     3
100
AcDbVertex
100
AcDb2dVertex
 10
513.4885218533753
 20
70.50612390002732
 30
0.0
  0
VERTEX
  5
483
330
415
100
AcDbEntity
  8
LAY-1
  6
CONTINUOUS
 62
     3
100
AcDbVertex
100
AcDb2dVertex
 10
513.3304431375228
 20
70.44247502597324
 30
0.0
  0
VERTEX
  5
484
330
415
100
AcDbEntity
  8
LAY-1
  6
CONTINUOUS
 62
     3
100
AcDbVertex
100
AcDb2dVertex
 10
513.1743390631173
 20
70.37684341724571
 30
0.0
  0
VERTEX
  5
485
330
415
100
AcDbEntity
  8
LAY-1
  6
CONTINUOUS
 62
     3
100
AcDbVertex
100
AcDb2dVertex
 10
513.0202698119699
 20
70.30925437765433
 30
0.0
  0
VERTEX
  5
486
330
415
100
AcDbEntity
  8
LAY-1
  6
CONTINUOUS
 62
     3
100
AcDbVertex
100
AcDb2dVertex
 10
512.8682947813329
 20
70.23973396565259
 30
0.0
  0
VERTEX
  5
487
330
415
100
AcDbEntity
  8
LAY-1
  6
CONTINUOUS
 62
     3
100
AcDbVertex
100
AcDb2dVertex
 10
512.7184725609975
 20
70.16830898428907
 30
0.0
  0
VERTEX
  5
488
330
415
100
AcDbEntity
  8
LAY-1
  6
CONTINUOUS
 62
     3
100
AcDbVertex
100
AcDb2dVertex
 10
512.5708609107082
 20
70.09500697087219
 30
0.0
  0
VERTEX
  5
489
330
415
100
AcDbEntity
  8
LAY-1
  6
CONTINUOUS
 62
     3
100
AcDbVertex
100
AcDb2dVertex
 10
512.425516737893
 20
70.01985618635132
 30
0.0
  0
VERTEX
  5
48A
330
415
100
AcDbEntity
  8
LAY-1
  6
CONTINUOUS
 62
     3
100
AcDbVertex
100
AcDb2dVertex
 10
512.282496075724
 20
69.94288560441953
 30
0.0
  0
VERTEX
  5
48B
330
415
100
AcDbEntity
  8
LAY-1
  6
CONTINUOUS
 62
     3
100
AcDbVertex
100
AcDb2dVertex
 10
512.141854061517
 20
69.86412490034081
 30
0.0
  0
VERTEX
  5
48C
330
415
100
AcDbEntity
  8
LAY-1
  6
CONTINUOUS
 62
     3
100
AcDbVertex
100
AcDb2dVertex
 10
512.0036449154725
 20
69.78360443950726
 30
0.0
  0
VERTEX
  5
48D
330
415
100
AcDbEntity
  8
LAY-1
  6
CONTINUOUS
 62
     3
100
AcDbVertex
100
AcDb2dVertex
 10
511.8679219197737
 20
69.70135526572994
 30
0.0
  0
VERTEX
  5
48E
330
415
100
AcDbEntity
  8
LAY-1
  6
CONTINUOUS
 62
     3
100
AcDbVertex
100
AcDb2dVertex
 10
511.7347373980457
 20
69.61740908926885
 30
0.0
  0
VERTEX
  5
48F
330
415
100
AcDbEntity
  8
LAY-1
  6
CONTINUOUS
 62
     3
100
AcDbVertex
100
AcDb2dVertex
 10
511.6041426951837
 20
69.53179827460497
 30
0.0
  0
VERTEX
  5
490
330
415
100
AcDbEntity
  8
LAY-1
  6
CONTINUOUS
 62
     3
100
AcDbVertex
100
AcDb2dVertex
 10
511.4761881575586
 20
69.44455582796093
 30
0.0
  0
VERTEX
  5
491
330
415
100
AcDbEntity
  8
LAY-1
  6
CONTINUOUS
 62
     3
100
AcDbVertex
100
AcDb2dVertex
 10
511.3509231136089
 20
69.35571538457384
 30
0.0
  0
VERTEX
  5
492
330
415
100
AcDbEntity
  8
LAY-1
  6
CONTINUOUS
 62
     3
100
AcDbVertex
100
AcDb2dVertex
 10
511.2283958548238
 20
69.26531119572593
 30
0.0
  0
VERTEX
  5
493
330
415
100
AcDbEntity
  8
LAY-1
  6
CONTINUOUS
 62
     3
100
AcDbVertex
100
AcDb2dVertex
 10
511.1086536171267
 20
69.17337811553728
 30
0.0
  0
VERTEX
  5
494
330
415
100
AcDbEntity
  8
LAY-1
  6
CONTINUOUS
 62
     3
100
AcDbVertex
100
AcDb2dVertex
 10
510.991742562666
 20
69.07995158752675
 30
0.0
  0
VERTEX
  5
495
330
415
100
AcDbEntity
  8
LAY-1
  6
CONTINUOUS
 62
     3
100
AcDbVertex
100
AcDb2dVertex
 10
510.8777077620208
 20
68.98506763094537
 30
0.0
  0
VERTEX
  5
496
330
415
100
AcDbEntity
  8
LAY-1
  6
CONTINUOUS
 62
     3
100
AcDbVertex
100
AcDb2dVertex
 10
510.7665931768248
 20
68.88876282688756
 30
0.0
  0
VERTEX
  5
497
330
415
100
AcDbEntity
  8
LAY-1
  6
CONTINUOUS
 62
     3
100
AcDbVertex
100
AcDb2dVertex
 10
510.6584416428211
 20
68.7910743041864
 30
0.0
  0
VERTEX
  5
498
330
415
100
AcDbEntity
  8
LAY-1
  6
CONTINUOUS
 62
     3
100
AcDbVertex
100
AcDb2dVertex
 10
510.5532948533498
 20
68.69203972509735
 30
0.0
  0
VERTEX
  5
499
330
415
100
AcDbEntity
  8
LAY-1
  6
CONTINUOUS
 62
     3
100
AcDbVertex
100
AcDb2dVertex
 10
510.4511933432758
 20
68.59169727077642
 30
0.0
  0
VERTEX
  5
49A
330
415
100
AcDbEntity
  8
LAY-1
  6
CONTINUOUS
 62
     3
100
AcDbVertex
100
AcDb2dVertex
 10
510.3521764733632
 20
68.49008562655837
 30
0.0
  0
VERTEX
  5
49B
330
415
100
AcDbEntity
  8
LAY-1
  6
CONTINUOUS
 62
     3
100
AcDbVertex
100
AcDb2dVertex
 10
510.2562824151045
 20
68.38724396704083
 30
0.0
  0
VERTEX
  5
49C
330
415
100
AcDbEntity
  8
LAY-1
  6
CONTINUOUS
 62
     3
100
AcDbVertex
100
AcDb2dVertex
 10
510.1635481360051
 20
68.28321194097913
 30
0.0
  0
VERTEX
  5
49D
330
415
100
AcDbEntity
  8
LAY-1
  6
CONTINUOUS
 62
     3
100
AcDbVertex
100
AcDb2dVertex
 10
510.0740093853356
 20
68.17802965599947
 30
0.0
  0
VERTEX
  5
49E
330
415
100
AcDbEntity
  8
LAY-1
  6
CONTINUOUS
 62
     3
100
AcDbVertex
100
AcDb2dVertex
 10
509.9877006803505
 20
68.0717376631344
 30
0.0
  0
VERTEX
  5
49F
330
415
100
AcDbEntity
  8
LAY-1
  6
CONTINUOUS
 62
     3
100
AcDbVertex
100
AcDb2dVertex
 10
509.9046552929854
 20
67.96437694118737
 30
0.0
  0
VERTEX
  5
4A0
330
415
100
AcDbEntity
  8
LAY-1
  6
CONTINUOUS
 62
     3
100
AcDbVertex
100
AcDb2dVertex
 10
509.8249052370312
 20
67.85598888093352
 30
0.0
  0
VERTEX
  5
4A1
330
415
100
AcDbEntity
  8
LAY-1
  6
CONTINUOUS
 62
     3
100
AcDbVertex
100
AcDb2dVertex
 10
509.748481255796
 20
67.74661526916015
 30
0.0
  0
VERTEX
  5
4A2
330
415
100
AcDbEntity
  8
LAY-1
  6
CONTINUOUS
 62
     3
100
AcDbVertex
100
AcDb2dVertex
 10
509.675412810255
 20
67.63629827255573
 30
0.0
  0
VERTEX
  5
4A3
330
415
100
AcDbEntity
  8
LAY-1
  6
CONTINUOUS
 62
     3
100
AcDbVertex
100
AcDb2dVertex
 10
509.6057280676964
 20
67.52508042145223
 30
0.0
  0
VERTEX
  5
4A4
330
415
100
AcDbEntity
  8
LAY-1
  6
CONTINUOUS
 62
     3
100
AcDbVertex
100
AcDb2dVertex
 10
509.5394538908652
 20
67.41300459342727
 30
0.0
  0
VERTEX
  5
4A5
330
415
100
AcDbEntity
  8
LAY-1
  6
CONTINUOUS
 62
     3
100
AcDbVertex
100
AcDb2dVertex
 10
509.4766158276094
 20
67.3001139967721
 30
0.0
  0
VERTEX
  5
4A6
330
415
100
AcDbEntity
  8
LAY-1
  6
CONTINUOUS
 62
     3
100
AcDbVertex
100
AcDb2dVertex
 10
509.4172381010361
 20
67.18645215383344
 30
0.0
  0
VERTEX
  5
4A7
330
415
100
AcDbEntity
  8
LAY-1
  6
CONTINUOUS
 62
     3
100
AcDbVertex
100
AcDb2dVertex
 10
509.361343600174
 20
67.07206288423225
 30
0.0
  0
VERTEX
  5
4A8
330
415
100
AcDbEntity
  8
LAY-1
  6
CONTINUOUS
 62
     3
100
AcDbVertex
100
AcDb2dVertex
 10
509.3089538711544
 20
66.95699028797014
 30
0.0
  0
VERTEX
  5
4A9
330
415
100
AcDbEntity
  8
LAY-1
  6
CONTINUOUS
 62
     3
100
AcDbVertex
100
AcDb2dVertex
 10
509.2600891089076
 20
66.8412787284264
 30
0.0
  0
VERTEX
  5
4AA
330
415
100
AcDbEntity
  8
LAY-1
  6
CONTINUOUS
 62
     3
100
AcDbVertex
100
AcDb2dVertex
 10
509.2147681493807
 20
66.72497281525409
 30
0.0
  0
VERTEX
  5
4AB
330
415
100
AcDbEntity
  8
LAY-1
  6
CONTINUOUS
 62
     3
100
AcDbVertex
100
AcDb2dVertex
 10
509.17300846228
 20
66.6081173871811
 30
0.0
  0
VERTEX
  5
4AC
330
415
100
AcDbEntity
  8
LAY-1
  6
CONTINUOUS
 62
     3
100
AcDbVertex
100
AcDb2dVertex
 10
509.1348261443395
 20
66.49075749472303
 30
0.0
  0
VERTEX
  5
4AD
330
415
100
AcDbEntity
  8
LAY-1
  6
CONTINUOUS
 62
     3
100
AcDbVertex
100
AcDb2dVertex
 10
509.1002359131196
 20
66.37293838281482
 30
0.0
  0
VERTEX
  5
4AE
330
415
100
AcDbEntity
  8
LAY-1
  6
CONTINUOUS
 62
     3
100
AcDbVertex
100
AcDb2dVertex
 10
509.069251101336
 20
66.2547054733667
 30
0.0
  0
VERTEX
  5
4AF
330
415
100
AcDbEntity
  8
LAY-1
  6
CONTINUOUS
 62
     3
100
AcDbVertex
100
AcDb2dVertex
 10
509.0418836517242
 20
66.13610434775342
 30
0.0
  0
VERTEX
  5
4B0
330
415
100
AcDbEntity
  8
LAY-1
  6
CONTINUOUS
 62
     3
100
AcDbVertex
100
AcDb2dVertex
 10
509.0181441124397
 20
66.01718072924024
 30
0.0
  0
VERTEX
  5
4B1
330
415
100
AcDbEntity
  8
LAY-1
  6
CONTINUOUS
 62
     3
100
AcDbVertex
100
AcDb2dVertex
 10
508.9980416329937
 20
65.89798046535617
 30
0.0
  0
VERTEX
  5
4B2
330
415
100
AcDbEntity
  8
LAY-1
  6
CONTINUOUS
 62
     3
100
AcDbVertex
100
AcDb2dVertex
 10
508.9815839607312
 20
65.77854951021811
 30
0.0
  0
VERTEX
  5
4B3
330
415
100
AcDbEntity
  8
LAY-1
  6
CONTINUOUS
 62
     3
100
AcDbVertex
100
AcDb2dVertex
 10
508.968777437848
 20
65.65893390681441
 30
0.0
  0
VERTEX
  5
4B4
330
415
100
AcDbEntity
  8
LAY-1
  6
CONTINUOUS
 62
     3
100
AcDbVertex
100
AcDb2dVertex
 10
508.9596269989486
 20
65.53917976925459
 30
0.0
  0
VERTEX
  5
4B5
330
415
100
AcDbEntity
  8
LAY-1
  6
CONTINUOUS
 62
     3
100
AcDbVertex
100
AcDb2dVertex
 10
508.9541361691489
 20
65.41933326499117
 30
0.0
  0
VERTEX
  5
4B6
330
415
100
AcDbEntity
  8
LAY-1
  6
CONTINUOUS
 62
     3
100
AcDbVertex
100
AcDb2dVertex
 10
508.9523070627208
 20
65.29944059702149
 30
0.0
  0
VERTEX
  5
4B7
330
415
100
AcDbEntity
  8
LAY-1
  6
CONTINUOUS
 62
     3
100
AcDbVertex
100
AcDb2dVertex
 10
508.9541403822803
 20
65.17954798607548
 30
0.0
  0
VERTEX
  5
4B8
330
415
100
AcDbEntity
  8
LAY-1
  6
CONTINUOUS
 62
     3
100
AcDbVertex
100
AcDb2dVertex
 10
508.9596354185221
 20
65.0597016527974
 30
0.0
  0
VERTEX
  5
4B9
330
415
100
AcDbEntity
  8
LAY-1
  6
CONTINUOUS
 62
     3
100
AcDbVertex
100
AcDb2dVertex
 10
508.968790050495
 20
64.93994779992693
 30
0.0
  0
VERTEX
  5
4BA
330
415
100
AcDbEntity
  8
LAY-1
  6
CONTINUOUS
 62
     3
100
AcDbVertex
100
AcDb2dVertex
 10
508.981600746425
 20
64.82033259448758
 30
0.0
  0
VERTEX
  5
4BB
330
415
100
AcDbEntity
  8
LAY-1
  6
CONTINUOUS
 62
     3
100
AcDbVertex
100
AcDb2dVertex
 10
508.9980625650801
 20
64.70090214998919
 30
0.0
  0
VERTEX
  5
4BC
330
415
100
AcDbEntity
  8
LAY-1
  6
CONTINUOUS
 62
     3
100
AcDbVertex
100
AcDb2dVertex
 10
509.0181691576788
 20
64.581702508651
 30
0.0
  0
VERTEX
  5
4BD
330
415
100
AcDbEntity
  8
LAY-1
  6
CONTINUOUS
 62
     3
100
AcDbVertex
100
AcDb2dVertex
 10
509.041912770342
 20
64.4627796236519
 30
0.0
  0
VERTEX
  5
4BE
330
415
100
AcDbEntity
  8
LAY-1
  6
CONTINUOUS
 62
     3
100
AcDbVertex
100
AcDb2dVertex
 10
509.0692842470859
 20
64.34417934141567
 30
0.0
  0
VERTEX
  5
4BF
330
415
100
AcDbEntity
  8
LAY-1
  6
CONTINUOUS
 62
     3
100
AcDbVertex
100
AcDb2dVertex
 10
509.1002730333545
 20
64.22594738393752
 30
0.0
  0
VERTEX
  5
4C0
330
415
100
AcDbEntity
  8
LAY-1
  6
CONTINUOUS
 62
     3
100
AcDbVertex
100
AcDb2dVertex
 10
509.1348671800938
 20
64.10812933115795
 30
0.0
  0
VERTEX
  5
4C1
330
415
100
AcDbEntity
  8
LAY-1
  6
CONTINUOUS
 62
     3
100
AcDbVertex
100
AcDb2dVertex
 10
509.1730533483603
 20
63.99077060339221
 30
0.0
  0
VERTEX
  5
4C2
330
415
100
AcDbEntity
  8
LAY-1
  6
CONTINUOUS
 62
     3
100
AcDbVertex
100
AcDb2dVertex
 10
509.2148168144679
 20
63.87391644382097
 30
0.0
  0
VERTEX
  5
4C3
330
415
100
AcDbEntity
  8
LAY-1
  6
CONTINUOUS
 62
     3
100
AcDbVertex
100
AcDb2dVertex
 10
509.2601414756678
 20
63.75761190104998
 30
0.0
  0
VERTEX
  5
4C4
330
415
100
AcDbEntity
  8
LAY-1
  6
CONTINUOUS
 62
     3
100
AcDbVertex
100
AcDb2dVertex
 10
509.3090098563579
 20
63.64190181174342
 30
0.0
  0
VERTEX
  5
4C5
330
415
100
AcDbEntity
  8
LAY-1
  6
CONTINUOUS
 62
     3
100
AcDbVertex
100
AcDb2dVertex
 10
509.3614031148257
 20
63.5268307833411
 30
0.0
  0
VERTEX
  5
4C6
330
415
100
AcDbEntity
  8
LAY-1
  6
CONTINUOUS
 62
     3
100
AcDbVertex
100
AcDb2dVertex
 10
509.4173010505135
 20
63.41244317686187
 30
0.0
  0
VERTEX
  5
4C7
330
415
100
AcDbEntity
  8
LAY-1
  6
CONTINUOUS
 62
     3
100
AcDbVertex
100
AcDb2dVertex
 10
509.4766821118095
 20
63.29878308980437
 30
0.0
  0
VERTEX
  5
4C8
330
415
100
AcDbEntity
  8
LAY-1
  6
CONTINUOUS
 62
     3
100
AcDbVertex
100
AcDb2dVertex
 10
509.5395234043597
 20
63.18589433914735
 30
0.0
  0
VERTEX
  5
4C9
330
415
100
AcDbEntity
  8
LAY-1
  6
CONTINUOUS
 62
     3
100
AcDbVertex
100
AcDb2dVertex
 10
509.6058006998961
 20
63.07382044445961
 30
0.0
  0
VERTEX
  5
4CA
330
415
100
AcDbEntity
  8
LAY-1
  6
CONTINUOUS
 62
     3
100
AcDbVertex
100
AcDb2dVertex
 10
509.6754884455813
 20
62.96260461112422
 30
0.0
  0
VERTEX
  5
4CB
330
415
100
AcDbEntity
  8
LAY-1
  6
CONTINUOUS
 62
     3
100
AcDbVertex
100
AcDb2dVertex
 10
509.7485597738604
 20
62.85228971368377
 30
0.0
  0
VERTEX
  5
4CC
330
415
100
AcDbEntity
  8
LAY-1
  6
CONTINUOUS
 62
     3
100
AcDbVertex
100
AcDb2dVertex
 10
509.8249865128225
 20
62.74291827931341
 30
0.0
  0
VERTEX
  5
4CD
330
415
100
AcDbEntity
  8
LAY-1
  6
CONTINUOUS
 62
     3
100
AcDbVertex
100
AcDb2dVertex
 10
509.9047391970643
 20
62.63453247142809
 30
0.0
  0
VERTEX
  5
4CE
330
415
100
AcDbEntity
  8
LAY-1
  6
CONTINUOUS
 62
     3
100
AcDbVertex
100
AcDb2dVertex
 10
509.98778707905
 20
62.52717407342959
 30
0.0
  0
VERTEX
  5
4CF
330
415
100
AcDbEntity
  8
LAY-1
  6
CONTINUOUS
 62
     3
100
AcDbVertex
100
AcDb2dVertex
 10
510.0740981409697
 20
62.42088447260033
 30
0.0
  0
VERTEX
  5
4D0
330
415
100
AcDbEntity
  8
LAY-1
  6
CONTINUOUS
 62
     3
100
AcDbVertex
100
AcDb2dVertex
 10
510.1636391070822
 20
62.31570464415017
 30
0.0
  0
VERTEX
  5
4D1
330
415
100
AcDbEntity
  8
LAY-1
  6
CONTINUOUS
 62
     3
100
AcDbVertex
100
AcDb2dVertex
 10
510.2563754565475
 20
62.21167513542213
 30
0.0
  0
VERTEX
  5
4D2
330
415
100
AcDbEntity
  8
LAY-1
  6
CONTINUOUS
 62
     3
100
AcDbVertex
100
AcDb2dVertex
 10
510.3522714367351
 20
62.10883605026203
 30
0.0
  0
VERTEX
  5
4D3
330
415
100
AcDbEntity
  8
LAY-1
  6
CONTINUOUS
 62
     3
100
AcDbVertex
100
AcDb2dVertex
 10
510.45129007701
 20
62.00722703356115
 30
0.0
  0
VERTEX
  5
4D4
330
415
100
AcDbEntity
  8
LAY-1
  6
CONTINUOUS
 62
     3
100
AcDbVertex
100
AcDb2dVertex
 10
510.553393202987
 20
61.90688725597397
 30
0.0
  0
VERTEX
  5
4D5
330
415
100
AcDbEntity
  8
LAY-1
  6
CONTINUOUS
 62
     3
100
AcDbVertex
100
AcDb2dVertex
 10
510.658541451248
 20
61.80785539881981
 30
0.0
  0
VERTEX
  5
4D6
330
415
100
AcDbEntity
  8
LAY-1
  6
CONTINUOUS
 62
     3
100
AcDbVertex
100
AcDb2dVertex
 10
510.7666942845196
 20
61.71016963917276
 30
0.0
  0
VERTEX
  5
4D7
330
415
100
AcDbEntity
  8
LAY-1
  6
CONTINUOUS
 62
     3
100
AcDbVertex
100
AcDb2dVertex
 10
510.8778100073014
 20
61.61386763514651
 30
0.0
  0
VERTEX
  5
4D8
330
415
100
AcDbEntity
  8
LAY-1
  6
CONTINUOUS
 62
     3
100
AcDbVertex
100
AcDb2dVertex
 10
510.9918457819404
 20
61.51898651137816
 30
0.0
  0
VERTEX
  5
4D9
330
415
100
AcDbEntity
  8
LAY-1
  6
CONTINUOUS
 62
     3
100
AcDbVertex
100
AcDb2dVertex
 10
511.1087576451482
 20
61.42556284471937
 30
0.0
  0
VERTEX
  5
4DA
330
415
100
AcDbEntity
  8
LAY-1
  6
CONTINUOUS
 62
     3
100
AcDbVertex
100
AcDb2dVertex
 10
511.2285005249483
 20
61.33363265013696
 30
0.0
  0
VERTEX
  5
4DB
330
415
100
AcDbEntity
  8
LAY-1
  6
CONTINUOUS
 62
     3
100
AcDbVertex
100
AcDb2dVertex
 10
511.3510282580545
 20
61.24323136683176
 30
0.0
  0
VERTEX
  5
4DC
330
415
100
AcDbEntity
  8
LAY-1
  6
CONTINUOUS
 62
     3
100
AcDbVertex
100
AcDb2dVertex
 10
511.4762936076659
 20
61.15439384457767
 30
0.0
  0
VERTEX
  5
4DD
330
415
100
AcDbEntity
  8
LAY-1
  6
CONTINUOUS
 62
     3
100
AcDbVertex
100
AcDb2dVertex
 10
511.6042482816789
 20
61.06715433029024
 30
0.0
  0
VERTEX
  5
4DE
330
415
100
AcDbEntity
  8
LAY-1
  6
CONTINUOUS
 62
     3
100
AcDbVertex
100
AcDb2dVertex
 10
511.7348429513047
 20
60.98154645482515
 30
0.0
  0
VERTEX
  5
4DF
330
415
100
AcDbEntity
  8
LAY-1
  6
CONTINUOUS
 62
     3
100
AcDbVertex
100
AcDb2dVertex
 10
511.8680272700851
 20
60.89760322001592
 30
0.0
  0
VERTEX
  5
4E0
330
415
100
AcDbEntity
  8
LAY-1
  6
CONTINUOUS
 62
     3
100
AcDbVertex
100
AcDb2dVertex
 10
512.0037498933029
 20
60.81535698595394
 30
0.0
  0
VERTEX
  5
4E1
330
415
100
AcDbEntity
  8
LAY-1
  6
CONTINUOUS
 62
     3
100
AcDbVertex
100
AcDb2dVertex
 10
512.1419584977748
 20
60.73483945851456
 30
0.0
  0
VERTEX
  5
4E2
330
415
100
AcDbEntity
  8
LAY-1
  6
CONTINUOUS
 62
     3
100
AcDbVertex
100
AcDb2dVertex
 10
512.2825998020229
 20
60.65608167713765
 30
0.0
  0
VERTEX
  5
4E3
330
415
100
AcDbEntity
  8
LAY-1
  6
CONTINUOUS
 62
     3
100
AcDbVertex
100
AcDb2dVertex
 10
512.4256195868142
 20
60.57911400286247
 30
0.0
  0
VERTEX
  5
4E4
330
415
100
AcDbEntity
  8
LAY-1
  6
CONTINUOUS
 62
     3
100
AcDbVertex
100
AcDb2dVertex
 10
512.5709627160622
 20
60.50396610662642
 30
0.0
  0
VERTEX
  5
4E5
330
415
100
AcDbEntity
  8
LAY-1
  6
CONTINUOUS
 62
     3
100
AcDbVertex
100
AcDb2dVertex
 10
512.7185731580828
 20
60.43066695782812
 30
0.0
  0
VERTEX
  5
4E6
330
415
100
AcDbEntity
  8
LAY-1
  6
CONTINUOUS
 62
     3
100
AcDbVertex
100
AcDb2dVertex
 10
512.8683940071927
 20
60.35924481316158
 30
0.0
  0
VERTEX
  5
4E7
330
415
100
AcDbEntity
  8
LAY-1
  6
CONTINUOUS
 62
     3
100
AcDbVertex
100
AcDb2dVertex
 10
513.0203675056467
 20
60.28972720572546
 30
0.0
  0
VERTEX
  5
4E8
330
415
100
AcDbEntity
  8
LAY-1
  6
CONTINUOUS
 62
     3
100
AcDbVertex
100
AcDb2dVertex
 10
513.174435065904
 20
60.2221409344105
 30
0.0
  0
VERTEX
  5
4E9
330
415
100
AcDbEntity
  8
LAY-1
  6
CONTINUOUS
 62
     3
100
AcDbVertex
100
AcDb2dVertex
 10
513.3305372932111
 20
60.15651205357017
 30
0.0
  0
VERTEX
  5
4EA
330
415
100
AcDbEntity
  8
LAY-1
  6
CONTINUOUS
 62
     3
100
AcDbVertex
100
AcDb2dVertex
 10
513.488614008499
 20
60.0928658629789
 30
0.0
  0
VERTEX
  5
4EB
330
415
100
AcDbEntity
  8
LAY-1
  6
CONTINUOUS
 62
     3
100
AcDbVertex
100
AcDb2dVertex
 10
513.6486042715809
 20
60.03122689808038
 30
0.0
  0
VERTEX
  5
4EC
330
415
100
AcDbEntity
  8
LAY-1
  6
CONTINUOUS
 62
     3
100
AcDbVertex
100
AcDb2dVertex
 10
513.8104464046439
 20
59.97161892053089
 30
0.0
  0
VERTEX
  5
4ED
330
415
100
AcDbEntity
  8
LAY-1
  6
CONTINUOUS
 62
     3
100
AcDbVertex
100
AcDb2dVertex
 10
513.9740780160248
 20
59.91406490904075
 30
0.0
  0
VERTEX
  5
4EE
330
415
100
AcDbEntity
  8
LAY-1
  6
CONTINUOUS
 62
     3
100
AcDbVertex
100
AcDb2dVertex
 10
514.1394360242597
 20
59.85858705051749
 30
0.0
  0
VERTEX
  5
4EF
330
415
100
AcDbEntity
  8
LAY-1
  6
CONTINUOUS
 62
     3
100
AcDbVertex
100
AcDb2dVertex
 10
514.3064566824027
 20
59.80520673151477
 30
0.0
  0
VERTEX
  5
4F0
330
415
100
AcDbEntity
  8
LAY-1
  6
CONTINUOUS
 62
     3
100
AcDbVertex
100
AcDb2dVertex
 10
514.4750756025966
 20
59.75394452998887
 30
0.0
  0
VERTEX
  5
4F1
330
415
100
AcDbEntity
  8
LAY-1
  6
CONTINUOUS
 62
     3
100
AcDbVertex
100
AcDb2dVertex
 10
514.6452277808949
 20
59.70482020736728
 30
0.0
  0
VERTEX
  5
4F2
330
415
100
AcDbEntity
  8
LAY-1
  6
CONTINUOUS
 62
     3
100
AcDbVertex
100
AcDb2dVertex
 10
514.8168476223179
 20
59.65785270093238
 30
0.0
  0
VERTEX
  5
4F3
330
415
100
AcDbEntity
  8
LAY-1
  6
CONTINUOUS
 62
     3
100
AcDbVertex
100
AcDb2dVertex
 10
514.9898689661385
 20
59.61306011652232
 30
0.0
  0
VERTEX
  5
4F4
330
415
100
AcDbEntity
  8
LAY-1
  6
CONTINUOUS
 62
     3
100
AcDbVertex
100
AcDb2dVertex
 10
515.1642251113847
 20
59.57045972155214
 30
0.0
  0
VERTEX
  5
4F5
330
415
100
AcDbEntity
  8
LAY-1
  6
CONTINUOUS
 62
     3
100
AcDbVertex
100
AcDb2dVertex
 10
515.3398488425514
 20
59.5300679383588
 30
0.0
  0
VERTEX
  5
4F6
330
415
100
AcDbEntity
  8
LAY-1
  6
CONTINUOUS
 62
     3
100
AcDbVertex
100
AcDb2dVertex
 10
515.5166724555105
 20
59.49190033787102
 30
0.0
  0
VERTEX
  5
4F7
330
415
100
AcDbEntity
  8
LAY-1
  6
CONTINUOUS
 62
     3
100
AcDbVertex
100
AcDb2dVertex
 10
515.6946277836079
 20
59.4559716336085
 30
0.0
  0
VERTEX
  5
4F8
330
415
100
AcDbEntity
  8
LAY-1
  6
CONTINUOUS
 62
     3
100
AcDbVertex
100
AcDb2dVertex
 10
515.8736462239395
 20
59.42229567600987
 30
0.0
  0
VERTEX
  5
4F9
330
415
100
AcDbEntity
  8
LAY-1
  6
CONTINUOUS
 62
     3
100
AcDbVertex
100
AcDb2dVertex
 10
516.0536587637966
 20
59.390885447095
 30
0.0
  0
VERTEX
  5
4FA
330
415
100
AcDbEntity
  8
LAY-1
  6
CONTINUOUS
 62
     3
100
AcDbVertex
100
AcDb2dVertex
 10
516.2345960072671
 20
59.36175305546072
 30
0.0
  0
VERTEX
  5
4FB
330
415
100
AcDbEntity
  8
LAY-1
  6
CONTINUOUS
 62
     3
100
AcDbVertex
100
AcDb2dVertex
 10
516.4163882019858
 20
59.33490973161435
 30
0.0
  0
VERTEX
  5
4FC
330
415
100
AcDbEntity
  8
LAY-1
  6
CONTINUOUS
 62
     3
100
AcDbVertex
100
AcDb2dVertex
 10
516.5989652660207
 20
59.31036582364447
 30
0.0
  0
VERTEX
  5
4FD
330
415
100
AcDbEntity
  8
LAY-1
  6
CONTINUOUS
 62
     3
100
AcDbVertex
100
AcDb2dVertex
 10
516.7822568148887
 20
59.28813079323254
 30
0.0
  0
VERTEX
  5
4FE
330
415
100
AcDbEntity
  8
LAY-1
  6
CONTINUOUS
 62
     3
100
AcDbVertex
100
AcDb2dVertex
 10
516.966192188685
 20
59.268213212006
 30
0.0
  0
VERTEX
  5
4FF
330
415
100
AcDbEntity
  8
LAY-1
  6
CONTINUOUS
 62
     3
100
AcDbVertex
100
AcDb2dVertex
 10
517.1507004793208
 20
59.25062075823445
 30
0.0
  0
VERTEX
  5
500
330
415
100
AcDbEntity
  8
LAY-1
  6
CONTINUOUS
 62
     3
100
AcDbVertex
100
AcDb2dVertex
 10
517.3357105578554
 20
59.23536021386946
 30
0.0
  0
VERTEX
  5
501
330
415
100
AcDbEntity
  8
LAY-1
  6
CONTINUOUS
 62
     3
100
AcDbVertex
100
AcDb2dVertex
 10
517.5211511019144
 20
59.22243746193146
 30
0.0
  0
VERTEX
  5
502
330
415
100
AcDbEntity
  8
LAY-1
  6
CONTINUOUS
 62
     3
100
AcDbVertex
100
AcDb2dVertex
 10
517.7069506231812
 20
59.21185748424108
 30
0.0
  0
VERTEX
  5
503
330
415
100
AcDbEntity
  8
LAY-1
  6
CONTINUOUS
 62
     3
100
AcDbVertex
100
AcDb2dVertex
 10
517.8930374949546
 20
59.20362435949949
 30
0.0
  0
VERTEX
  5
504
330
415
100
AcDbEntity
  8
LAY-1
  6
CONTINUOUS
 62
     3
100
AcDbVertex
100
AcDb2dVertex
 10
518.0793399797559
 20
59.19774126171558
 30
0.0
  0
VERTEX
  5
505
330
415
100
AcDbEntity
  8
LAY-1
  6
CONTINUOUS
 62
     3
100
AcDbVertex
100
AcDb2dVertex
 10
518.2657862569836
 20
59.1942104589823
 30
0.0
  0
VERTEX
  5
506
330
415
100
AcDbEntity
  8
LAY-1
  6
CONTINUOUS
 62
     3
100
AcDbVertex
100
AcDb2dVertex
 10
518.4523044505964
 20
59.19303331260312
 30
0.0
  0
VERTEX
  5
507
330
415
100
AcDbEntity
  8
LAY-1
  6
CONTINUOUS
 62
     3
100
AcDbVertex
100
AcDb2dVertex
 10
518.6388226568189
 20
59.19421027656591
 30
0.0
  0
VERTEX
  5
508
330
415
100
AcDbEntity
  8
LAY-1
  6
CONTINUOUS
 62
     3
100
AcDbVertex
100
AcDb2dVertex
 10
518.8252689718582
 20
59.19774089736825
 30
0.0
  0
VERTEX
  5
509
330
415
100
AcDbEntity
  8
LAY-1
  6
CONTINUOUS
 62
     3
100
AcDbVertex
100
AcDb2dVertex
 10
519.0115715196206
 20
59.20362381419176
 30
0.0
  0
VERTEX
  5
50A
330
415
100
AcDbEntity
  8
LAY-1
  6
CONTINUOUS
 62
     3
100
AcDbVertex
100
AcDb2dVertex
 10
519.1976584794165
 20
59.21185675942615
 30
0.0
  0
VERTEX
  5
50B
330
415
100
AcDbEntity
  8
LAY-1
  6
CONTINUOUS
 62
     3
100
AcDbVertex
100
AcDb2dVertex
 10
519.3834581136456
 20
59.22243655954333
 30
0.0
  0
VERTEX
  5
50C
330
415
100
AcDbEntity
  8
LAY-1
  6
CONTINUOUS
 62
     3
100
AcDbVertex
100
AcDb2dVertex
 10
519.568898795449
 20
59.2353591363194
 30
0.0
  0
VERTEX
  5
50D
330
415
100
AcDbEntity
  8
LAY-1
  6
CONTINUOUS
 62
     3
100
AcDbVertex
100
AcDb2dVertex
 10
519.7539090363184
 20
59.25061950840683
 30
0.0
  0
VERTEX
  5
50E
330
415
100
AcDbEntity
  8
LAY-1
  6
CONTINUOUS
 62
     3
100
AcDbVertex
100
AcDb2dVertex
 10
519.9384175136536
 20
59.26821179325378
 30
0.0
  0
VERTEX
  5
50F
330
415
100
AcDbEntity
  8
LAY-1
  6
CONTINUOUS
 62
     3
100
AcDbVertex
100
AcDb2dVertex
 10
520.122353098255
 20
59.28812920937094
 30
0.0
  0
VERTEX
  5
510
330
415
100
AcDbEntity
  8
LAY-1
  6
CONTINUOUS
 62
     3
100
AcDbVertex
100
AcDb2dVertex
 10
520.3056448817402
 20
59.31036407894487
 30
0.0
  0
VERTEX
  5
511
330
415
100
AcDbEntity
  8
LAY-1
  6
CONTINUOUS
 62
     3
100
AcDbVertex
100
AcDb2dVertex
 10
520.488222203879
 20
59.33490783079691
 30
0.0
  0
VERTEX
  5
512
330
415
100
AcDbEntity
  8
LAY-1
  6
CONTINUOUS
 62
     3
100
AcDbVertex
100
AcDb2dVertex
 10
520.6700146798293
 20
59.36175100368609
 30
0.0
  0
VERTEX
  5
513
330
415
100
AcDbEntity
  8
LAY-1
  6
CONTINUOUS
 62
     3
100
AcDbVertex
100
AcDb2dVertex
 10
520.8509522272693
 20
59.39088324995589
 30
0.0
  0
VERTEX
  5
514
330
415
100
AcDbEntity
  8
LAY-1
  6
CONTINUOUS
 62
     3
100
AcDbVertex
100
AcDb2dVertex
 10
521.0309650934119
 20
59.42229333952139
 30
0.0
  0
VERTEX
  5
515
330
415
100
AcDbEntity
  8
LAY-1
  6
CONTINUOUS
 62
     3
100
AcDbVertex
100
AcDb2dVertex
 10
521.2099838818923
 20
59.45596916419771
 30
0.0
  0
VERTEX
  5
516
330
415
100
AcDbEntity
  8
LAY-1
  6
CONTINUOUS
 62
     3
100
AcDbVertex
100
AcDb2dVertex
 10
521.3879395795191
 20
59.49189774236589
 30
0.0
  0
VERTEX
  5
517
330
415
100
AcDbEntity
  8
LAY-1
  6
CONTINUOUS
 62
     3
100
AcDbVertex
100
AcDb2dVertex
 10
521.5647635828767
 20
59.53006522397675
 30
0.0
  0
VERTEX
  5
518
330
415
100
AcDbEntity
  8
LAY-1
  6
CONTINUOUS
 62
     3
100
AcDbVertex
100
AcDb2dVertex
 10
521.7403877247707
 20
59.57045689588767
 30
0.0
  0
VERTEX
  5
519
330
415
100
AcDbEntity
  8
LAY-1
  6
CONTINUOUS
 62
     3
100
AcDbVertex
100
AcDb2dVertex
 10
521.9147443005039
 20
59.61305718753368
 30
0.0
  0
VERTEX
  5
51A
330
415
100
AcDbEntity
  8
LAY-1
  6
CONTINUOUS
 62
     3
100
AcDbVertex
100
AcDb2dVertex
 10
522.0877660939769
 20
59.65784967692821
 30
0.0
  0
VERTEX
  5
51B
330
415
100
AcDbEntity
  8
LAY-1
  6
CONTINUOUS
 62
     3
100
AcDbVertex
100
AcDb2dVertex
 10
522.2593864035961
 20
59.70481709699214
 30
0.0
  0
VERTEX
  5
51C
330
415
100
AcDbEntity
  8
LAY-1
  6
CONTINUOUS
 62
     3
100
AcDbVertex
100
AcDb2dVertex
 10
522.4295390679887
 20
59.75394134220863
 30
0.0
  0
VERTEX
  5
51D
330
415
100
AcDbEntity
  8
LAY-1
  6
CONTINUOUS
 62
     3
100
AcDbVertex
100
AcDb2dVertex
 10
522.5981584915041
 20
59.80520347560099
 30
0.0
  0
VERTEX
  5
51E
330
415
100
AcDbEntity
  8
LAY-1
  6
CONTINUOUS
 62
     3
100
AcDbVertex
100
AcDb2dVertex
 10
522.7651796695022
 20
59.85858373603145
 30
0.0
  0
VERTEX
  5
51F
330
415
100
AcDbEntity
  8
LAY-1
  6
CONTINUOUS
 62
     3
100
AcDbVertex
100
AcDb2dVertex
 10
522.9305382134107
 20
59.91406154581682
 30
0.0
  0
VERTEX
  5
520
330
415
100
AcDbEntity
  8
LAY-1
  6
CONTINUOUS
 62
     3
100
AcDbVertex
100
AcDb2dVertex
 10
523.0941703755466
 20
59.97161551865997
 30
0.0
  0
VERTEX
  5
521
330
415
100
AcDbEntity
  8
LAY-1
  6
CONTINUOUS
 62
     3
100
AcDbVertex
100
AcDb2dVertex
 10
523.2560130736905
 20
60.03122346789223
 30
0.0
  0
VERTEX
  5
522
330
415
100
AcDbEntity
  8
LAY-1
  6
CONTINUOUS
 62
     3
100
AcDbVertex
100
AcDb2dVertex
 10
523.4160039154027
 20
60.09286241502383
 30
0.0
  0
VERTEX
  5
523
330
415
100
AcDbEntity
  8
LAY-1
  6
CONTINUOUS
 62
     3
100
AcDbVertex
100
AcDb2dVertex
 10
523.5740812220782
 20
60.15650859860148
 30
0.0
  0
VERTEX
  5
524
330
415
100
AcDbEntity
  8
LAY-1
  6
CONTINUOUS
 62
     3
100
AcDbVertex
100
AcDb2dVertex
 10
523.7301840527206
 20
60.22213748336526
 30
0.0
  0
VERTEX
  5
525
330
415
100
AcDbEntity
  8
LAY-1
  6
CONTINUOUS
 62
     3
100
AcDbVertex
100
AcDb2dVertex
 10
523.8842522274367
 20
60.28972376970597
 30
0.0
  0
VERTEX
  5
526
330
415
100
AcDbEntity
  8
LAY-1
  6
CONTINUOUS
 62
     3
100
AcDbVertex
100
AcDb2dVertex
 10
524.036226350634
 20
60.3592414034153
 30
0.0
  0
VERTEX
  5
527
330
415
100
AcDbEntity
  8
LAY-1
  6
CONTINUOUS
 62
     3
100
AcDbVertex
100
AcDb2dVertex
 10
524.1860478339204
 20
60.43066358572872
 30
0.0
  0
VERTEX
  5
528
330
415
100
AcDbEntity
  8
LAY-1
  6
CONTINUOUS
 62
     3
100
AcDbVertex
100
AcDb2dVertex
 10
524.3336589186881
 20
60.50396278365361
 30
0.0
  0
VERTEX
  5
529
330
415
100
AcDbEntity
  8
LAY-1
  6
CONTINUOUS
 62
     3
100
AcDbVertex
100
AcDb2dVertex
 10
524.479002698381
 20
60.57911074058183
 30
0.0
  0
VERTEX
  5
52A
330
415
100
AcDbEntity
  8
LAY-1
  6
CONTINUOUS
 62
     3
100
AcDbVertex
100
AcDb2dVertex
 10
524.6220231404327
 20
60.65607848718048
 30
0.0
  0
VERTEX
  5
52B
330
415
100
AcDbEntity
  8
LAY-1
  6
CONTINUOUS
 62
     3
100
AcDbVertex
100
AcDb2dVertex
 10
524.7626651078674
 20
60.73483635255724
 30
0.0
  0
VERTEX
  5
52C
330
415
100
AcDbEntity
  8
LAY-1
  6
CONTINUOUS
 62
     3
100
AcDbVertex
100
AcDb2dVertex
 10
524.9008743805568
 20
60.81535397569735
 30
0.0
  0
VERTEX
  5
52D
330
415
100
AcDbEntity
  8
LAY-1
  6
CONTINUOUS
 62
     3
100
AcDbVertex
100
AcDb2dVertex
 10
525.036597676122
 20
60.89760031716492
 30
0.0
  0
VERTEX
  5
52E
330
415
100
AcDbEntity
  8
LAY-1
  6
CONTINUOUS
 62
     3
100
AcDbVertex
100
AcDb2dVertex
 10
525.1697826704757
 20
60.98154367106741
 30
0.0
  0
VERTEX
  5
52F
330
415
100
AcDbEntity
  8
LAY-1
  6
CONTINUOUS
 62
     3
100
AcDbVertex
100
AcDb2dVertex
 10
525.3003780179938
 20
61.06715167727583
 30
0.0
  0
VERTEX
  5
530
330
415
100
AcDbEntity
  8
LAY-1
  6
CONTINUOUS
 62
     3
100
AcDbVertex
100
AcDb2dVertex
 10
525.4283333713116
 20
61.15439133389816
 30
0.0
  0
VERTEX
  5
531
330
415
100
AcDbEntity
  8
LAY-1
  6
CONTINUOUS
 62
     3
100
AcDbVertex
100
AcDb2dVertex
 10
525.5535994007327
 20
61.24322900999931
 30
0.0
  0
VERTEX
  5
532
330
415
100
AcDbEntity
  8
LAY-1
  6
CONTINUOUS
 62
     3
100
AcDbVertex
100
AcDb2dVertex
 10
525.6761278132484
 20
61.3336304585639
 30
0.0
  0
VERTEX
  5
533
330
415
100
AcDbEntity
  8
LAY-1
  6
CONTINUOUS
 62
     3
100
AcDbVertex
100
AcDb2dVertex
 10
525.7958713711566
 20
61.42556082969719
 30
0.0
  0
VERTEX
  5
534
330
415
100
AcDbEntity
  8
LAY-1
  6
CONTINUOUS
 62
     3
100
AcDbVertex
100
AcDb2dVertex
 10
525.9127839102728
 20
61.51898468405744
 30
0.0
  0
VERTEX
  5
535
330
415
100
AcDbEntity
  8
LAY-1
  6
CONTINUOUS
 62
     3
100
AcDbVertex
100
AcDb2dVertex
 10
526.0268203577289
 20
61.61386600651628
 30
0.0
  0
VERTEX
  5
536
330
415
100
AcDbEntity
  8
LAY-1
  6
CONTINUOUS
 62
     3
100
AcDbVertex
100
AcDb2dVertex
 10
526.1379367493521
 20
61.71016822004094
 30
0.0
  0
VERTEX
  5
537
330
415
100
AcDbEntity
  8
LAY-1
  6
CONTINUOUS
 62
     3
100
AcDbVertex
100
AcDb2dVertex
 10
526.2460902466138
 20
61.8078541997927
 30
0.0
  0
VERTEX
  5
538
330
415
100
AcDbEntity
  8
LAY-1
  6
CONTINUOUS
 62
     3
100
AcDbVertex
100
AcDb2dVertex
 10
526.3512391531464
 20
61.90688628743715
 30
0.0
  0
VERTEX
  5
539
330
415
100
AcDbEntity
  8
LAY-1
  6
CONTINUOUS
 62
     3
100
AcDbVertex
100
AcDb2dVertex
 10
526.4533429308209
 20
62.00722630565986
 30
0.0
  0
VERTEX
  5
53A
330
415
100
AcDbEntity
  8
LAY-1
  6
CONTINUOUS
 62
     3
100
AcDbVertex
100
AcDb2dVertex
 10
526.5523622153768
 20
62.10883557288247
 30
0.0
  0
VERTEX
  5
53B
330
415
100
AcDbEntity
  8
LAY-1
  6
CONTINUOUS
 62
     3
100
AcDbVertex
100
AcDb2dVertex
 10
526.6482588315982
 20
62.21167491817243
 30
0.0
  0
VERTEX
  5
53C
330
415
100
AcDbEntity
  8
LAY-1
  6
CONTINUOUS
 62
     3
100
AcDbVertex
100
AcDb2dVertex
 10
526.7409958080356
 20
62.31570469634272
 30
0.0
  0
VERTEX
  5
53D
330
415
100
AcDbEntity
  8
LAY-1
  6
CONTINUOUS
 62
     3
100
AcDbVertex
100
AcDb2dVertex
 10
526.8305373912596
 20
62.42088480323326
 30
0.0
  0
VERTEX
  5
53E
330
415
100
AcDbEntity
  8
LAY-1
  6
CONTINUOUS
 62
     3
100
AcDbVertex
100
AcDb2dVertex
 10
526.9168490596476
 20
62.52717469117016
 30
0.0
  0
VERTEX
  5
53F
330
415
100
AcDbEntity
  8
LAY-1
  6
CONTINUOUS
 62
     3
100
AcDbVertex
100
AcDb2dVertex
 10
526.9998975366948
 20
62.63453338459527
 30
0.0
  0
VERTEX
  5
540
330
415
100
AcDbEntity
  8
LAY-1
  6
CONTINUOUS
 62
     3
100
AcDbVertex
100
AcDb2dVertex
 10
527.0796508038463
 20
62.74291949586154
 30
0.0
  0
VERTEX
  5
541
330
415
100
AcDbEntity
  8
LAY-1
  6
CONTINUOUS
 62
     3
100
AcDbVertex
100
AcDb2dVertex
 10
527.1560781128427
 20
62.85229124118678
 30
0.0
  0
VERTEX
  5
542
330
415
100
AcDbEntity
  8
LAY-1
  6
CONTINUOUS
 62
     3
100
AcDbVertex
100
AcDb2dVertex
 10
527.2291499975773
 20
62.96260645676051
 30
0.0
  0
VERTEX
  5
543
330
415
100
AcDbEntity
  8
LAY-1
  6
CONTINUOUS
 62
     3
100
AcDbVertex
100
AcDb2dVertex
 10
527.2988382854592
 20
63.07382261499686
 30
0.0
  0
VERTEX
  5
544
330
415
100
AcDbEntity
  8
LAY-1
  6
CONTINUOUS
 62
     3
100
AcDbVertex
100
AcDb2dVertex
 10
527.3651161082769
 20
63.18589684092854
 30
0.0
  0
VERTEX
  5
545
330
415
100
AcDbEntity
  8
LAY-1
  6
CONTINUOUS
 62
     3
100
AcDbVertex
100
AcDb2dVertex
 10
527.4279579125597
 20
63.29878592873462
 30
0.0
  0
VERTEX
  5
546
330
415
100
AcDbEntity
  8
LAY-1
  6
CONTINUOUS
 62
     3
100
AcDbVertex
100
AcDb2dVertex
 10
527.4873394694334
 20
63.4124463583949
 30
0.0
  0
VERTEX
  5
547
330
415
100
AcDbEntity
  8
LAY-1
  6
CONTINUOUS
 62
     3
100
AcDbVertex
100
AcDb2dVertex
 10
527.5432378839623
 20
63.52683431246777
 30
0.0
  0
VERTEX
  5
548
330
415
100
AcDbEntity
  8
LAY-1
  6
CONTINUOUS
 62
     3
100
AcDbVertex
100
AcDb2dVertex
 10
527.5956316039809
 20
63.64190569297978
 30
0.0
  0
VERTEX
  5
549
330
415
100
AcDbEntity
  8
LAY-1
  6
CONTINUOUS
 62
     3
100
AcDbVertex
100
AcDb2dVertex
 10
527.644500428405
 20
63.75761613842633
 30
0.0
  0
VERTEX
  5
54A
330
415
100
AcDbEntity
  8
LAY-1
  6
CONTINUOUS
 62
     3
100
AcDbVertex
100
AcDb2dVertex
 10
527.6898255150238
 20
63.8739210408724
 30
0.0
  0
VERTEX
  5
54B
330
415
100
AcDbEntity
  8
LAY-1
  6
CONTINUOUS
 62
     3
100
AcDbVertex
100
AcDb2dVertex
 10
527.7315893877675
 20
63.99077556314825
 30
0.0
  0
VERTEX
  5
54C
330
415
100
AcDbEntity
  8
LAY-1
  6
CONTINUOUS
 62
     3
100
AcDbVertex
100
AcDb2dVertex
 10
527.7697759434479
 20
64.10813465613529
 30
0.0
  0
VERTEX
  5
54D
330
415
100
AcDbEntity
  8
LAY-1
  6
CONTINUOUS
 62
     3
100
AcDbVertex
100
AcDb2dVertex
 10
527.8043704579704
 20
64.22595307613108
 30
0.0
  0
VERTEX
  5
54E
330
415
100
AcDbEntity
  8
LAY-1
  6
CONTINUOUS
 62
     3
100
AcDbVertex
100
AcDb2dVertex
 10
527.835359592015
 20
64.34418540229234
 30
0.0
  0
VERTEX
  5
54F
330
415
100
AcDbEntity
  8
LAY-1
  6
CONTINUOUS
 62
     3
100
AcDbVertex
100
AcDb2dVertex
 10
527.8627313961813
 20
64.4627860541438
 30
0.0
  0
VERTEX
  5
550
330
415
100
AcDbEntity
  8
LAY-1
  6
CONTINUOUS
 62
     3
100
AcDbVertex
100
AcDb2dVertex
 10
527.8864753155997
 20
64.58170930915043
 30
0.0
  0
VERTEX
  5
551
330
415
100
AcDbEntity
  8
LAY-1
  6
CONTINUOUS
 62
     3
100
AcDbVertex
100
AcDb2dVertex
 10
527.9065821940047
 20
64.70090932034395
 30
0.0
  0
VERTEX
  5
552
330
415
100
AcDbEntity
  8
LAY-1
  6
CONTINUOUS
 62
     3
100
AcDbVertex
100
AcDb2dVertex
 10
527.9230442772688
 20
64.82034013399709
 30
0.0
  0
VERTEX
  5
553
330
415
100
AcDbEntity
  8
LAY-1
  6
CONTINUOUS
 62
     3
100
AcDbVertex
100
AcDb2dVertex
 10
527.9358552163948
 20
64.93995570733955
 30
0.0
  0
VERTEX
  5
554
330
415
100
AcDbEntity
  8
LAY-1
  6
CONTINUOUS
 62
     3
100
AcDbVertex
100
AcDb2dVertex
 10
527.9450100699682
 20
65.05970992630824
 30
0.0
  0
VERTEX
  5
555
330
415
100
AcDbEntity
  8
LAY-1
  6
CONTINUOUS
 62
     3
100
AcDbVertex
100
AcDb2dVertex
 10
527.9505053060665
 20
65.17955662332514
 30
0.0
  0
VERTEX
  5
556
330
415
100
AcDbEntity
  8
LAY-1
  6
CONTINUOUS
 62
     3
100
AcDbVertex
100
AcDb2dVertex
 10
527.9523388036233
 20
65.29944959509544
 30
0.0
  0
SEQEND
  5
557
330
415
100
AcDbEntity
  8
LAY-1
  6
CONTINUOUS
 62
     3
  0
LINE
  5
558
330
1F
100
AcDbEntity
  8
LAY-1
  6
CONTINUOUS
 62
     3
100
AcDbLine
 10
529.04816444535
 20
70.48454248392
 30
0.0
 11
529.04816444535
 21
63.47446978494003
 31
0.0
  0
LINE
  5
559
330
1F
100
AcDbEntity
  8
LAY-1
  6
CONTINUOUS
 62
     3
100
AcDbLine
 10
526.20924240607
 20
77.29551731187001
 30
0.0
 11
526.20924240607
 21
70.28544461289005
 31
0.0
  0
LINE
  5
55A
330
1F
100
AcDbEntity
  8
LAY-1
  6
CONTINUOUS
 62
     3
100
AcDbLine
 10
515.61307783845
 20
79.12047470314002
 30
0.0
 11
515.61307783845
 21
72.11040200416005
 31
0.0
  0
LINE
  5
55B
330
1F
100
AcDbEntity
  8
LAY-1
  6
CONTINUOUS
 62
     3
100
AcDbLine
 10
507.85645020323
 20
74.13452309951003
 30
0.0
 11
507.85645020323
 21
67.12445040053007
 31
0.0
  0
LINE
  5
55C
330
1F
100
AcDbEntity
  8
LAY-1
  6
CONTINUOUS
 62
     3
100
AcDbLine
 10
507.85645020323
 20
74.13452309950998
 30
0.0
 11
515.61307783845
 21
79.12047470314002
 31
0.0
  0
LINE
  5
55D
330
1F
100
AcDbEntity
  8
LAY-1
  6
CONTINUOUS
 62
     3
100
AcDbLine
 10
515.61307783845
 20
79.12047470314002
 30
0.0
 11
526.20924240607
 21
77.29551731187001
 31
0.0
  0
LINE
  5
55E
330
1F
100
AcDbEntity
  8
LAY-1
  6
CONTINUOUS
 62
     3
100
AcDbLine
 10
526.20924240607
 20
77.29551731187001
 30
0.0
 11
529.04816444535
 21
70.48454248392
 31
0.0
  0
LINE
  5
55F
330
1F
100
AcDbEntity
  8
LAY-1
  6
CONTINUOUS
 62
     3
100
AcDbLine
 10
596.9518604588861
 20
63.47445377715195
 30
0.0
 11
604.7086072214125
 21
58.48861233975526
 31
0.0
  0
LINE
  5
560
330
1F
100
AcDbEntity
  8
LAY-1
  6
CONTINUOUS
 62
     3
100
AcDbLine
 10
618.1435497967658
 20
67.12445040055269
 30
0.0
 11
610.3869221615502
 21
72.11040200419274
 31
0.0
  0
LINE
  5
561
330
1F
100
AcDbEntity
  8
LAY-1
  6
CONTINUOUS
 62
     3
100
AcDbLine
 10
599.7907575939332
 20
70.2854446129208
 30
0.0
 11
610.3869221615502
 21
72.11040200419274
 31
0.0
  0
LINE
  5
562
330
1F
100
AcDbEntity
  8
LAY-1
  6
CONTINUOUS
 62
     3
100
AcDbLine
 10
599.7907575939332
 20
70.2854446129208
 30
0.0
 11
596.9518173258919
 21
63.47442605161461
 31
0.0
  0
LINE
  5
563
330
1F
100
AcDbEntity
  8
LAY-1
  6
CONTINUOUS
 62
     3
100
AcDbLine
 10
604.7085640885238
 20
58.4885846147497
 30
0.0
 11
615.3044134240087
 21
60.31352612451093
 31
0.0
  0
LINE
  5
564
330
1F
100
AcDbEntity
  8
LAY-1
  6
CONTINUOUS
 62
     3
100
AcDbLine
 10
615.304337765059
 20
60.31357475708876
 30
0.0
 11
618.1435497967658
 21
67.12445040055269
 31
0.0
  0
POLYLINE
  5
565
330
1F
100
AcDbEntity
  8
LAY-1
  6
CONTINUOUS
 62
     3
100
AcDb2dPolyline
 66
     1
 10
0.0
 20
0.0
 30
0.0
 70
   128
  0
VERTEX
  5
566
330
565
100
AcDbEntity
  8
LAY-1
  6
CONTINUOUS
 62
     3
100
AcDbVertex
100
AcDb2dVertex
 10
598.0476611963767
 20
65.29944959509544
 30
0.0
  0
VERTEX
  5
567
330
565
100
AcDbEntity
  8
LAY-1
  6
CONTINUOUS
 62
     3
100
AcDbVertex
100
AcDb2dVertex
 10
598.0494901467481
 20
65.41934262042116
 30
0.0
  0
VERTEX
  5
568
330
565
100
AcDbEntity
  8
LAY-1
  6
CONTINUOUS
 62
     3
100
AcDbVertex
100
AcDb2dVertex
 10
598.0549808424792
 20
65.53918947801895
 30
0.0
  0
VERTEX
  5
569
330
565
100
AcDbEntity
  8
LAY-1
  6
CONTINUOUS
 62
     3
100
AcDbVertex
100
AcDb2dVertex
 10
598.0641311693117
 20
65.65894396434061
 30
0.0
  0
VERTEX
  5
56A
330
565
100
AcDbEntity
  8
LAY-1
  6
CONTINUOUS
 62
     3
100
AcDbVertex
100
AcDb2dVertex
 10
598.0769376021102
 20
65.77855991138591
 30
0.0
  0
VERTEX
  5
56B
330
565
100
AcDbEntity
  8
LAY-1
  6
CONTINUOUS
 62
     3
100
AcDbVertex
100
AcDb2dVertex
 10
598.0933952062153
 20
65.89799120450152
 30
0.0
  0
VERTEX
  5
56C
330
565
100
AcDbEntity
  8
LAY-1
  6
CONTINUOUS
 62
     3
100
AcDbVertex
100
AcDb2dVertex
 10
598.1134976393449
 20
66.01719180015971
 30
0.0
  0
VERTEX
  5
56D
330
565
100
AcDbEntity
  8
LAY-1
  6
CONTINUOUS
 62
     3
100
AcDbVertex
100
AcDb2dVertex
 10
598.1372371540331
 20
66.13611574371009
 30
0.0
  0
VERTEX
  5
56E
330
565
100
AcDbEntity
  8
LAY-1
  6
CONTINUOUS
 62
     3
100
AcDbVertex
100
AcDb2dVertex
 10
598.1646046006148
 20
66.25471718709662
 30
0.0
  0
VERTEX
  5
56F
330
565
100
AcDbEntity
  8
LAY-1
  6
CONTINUOUS
 62
     3
100
AcDbVertex
100
AcDb2dVertex
 10
598.195589430748
 20
66.37295040653373
 30
0.0
  0
VERTEX
  5
570
330
565
100
AcDbEntity
  8
LAY-1
  6
CONTINUOUS
 62
     3
100
AcDbVertex
100
AcDb2dVertex
 10
598.2301797014793
 20
66.49076982013509
 30
0.0
  0
VERTEX
  5
571
330
565
100
AcDbEntity
  8
LAY-1
  6
CONTINUOUS
 62
     3
100
AcDbVertex
100
AcDb2dVertex
 10
598.2683620798415
 20
66.60813000548706
 30
0.0
  0
VERTEX
  5
572
330
565
100
AcDbEntity
  8
LAY-1
  6
CONTINUOUS
 62
     3
100
AcDbVertex
100
AcDb2dVertex
 10
598.3101218479924
 20
66.72498571716159
 30
0.0
  0
VERTEX
  5
573
330
565
100
AcDbEntity
  8
LAY-1
  6
CONTINUOUS
 62
     3
100
AcDbVertex
100
AcDb2dVertex
 10
598.3554429088847
 20
66.84129190415968
 30
0.0
  0
VERTEX
  5
574
330
565
100
AcDbEntity
  8
LAY-1
  6
CONTINUOUS
 62
     3
100
AcDbVertex
100
AcDb2dVertex
 10
598.4043077924684
 20
66.95700372728174
 30
0.0
  0
VERTEX
  5
575
330
565
100
AcDbEntity
  8
LAY-1
  6
CONTINUOUS
 62
     3
100
AcDbVertex
100
AcDb2dVertex
 10
598.456697662423
 20
67.07207657641487
 30
0.0
  0
VERTEX
  5
576
330
565
100
AcDbEntity
  8
LAY-1
  6
CONTINUOUS
 62
     3
100
AcDbVertex
100
AcDb2dVertex
 10
598.5125923234152
 20
67.18646608773241
 30
0.0
  0
VERTEX
  5
577
330
565
100
AcDbEntity
  8
LAY-1
  6
CONTINUOUS
 62
     3
100
AcDbVertex
100
AcDb2dVertex
 10
598.5719702288832
 20
67.3001281607988
 30
0.0
  0
VERTEX
  5
578
330
565
100
AcDbEntity
  8
LAY-1
  6
CONTINUOUS
 62
     3
100
AcDbVertex
100
AcDb2dVertex
 10
598.6348084893385
 20
67.41301897557298
 30
0.0
  0
VERTEX
  5
579
330
565
100
AcDbEntity
  8
LAY-1
  6
CONTINUOUS
 62
     3
100
AcDbVertex
100
AcDb2dVertex
 10
598.7010828811891
 20
67.52509500930336
 30
0.0
  0
VERTEX
  5
57A
330
565
100
AcDbEntity
  8
LAY-1
  6
CONTINUOUS
 62
     3
100
AcDbVertex
100
AcDb2dVertex
 10
598.7707678560739
 20
67.63631305330875
 30
0.0
  0
VERTEX
  5
57B
330
565
100
AcDbEntity
  8
LAY-1
  6
CONTINUOUS
 62
     3
100
AcDbVertex
100
AcDb2dVertex
 10
598.8438365507112
 20
67.74663022963773
 30
0.0
  0
VERTEX
  5
57C
330
565
100
AcDbEntity
  8
LAY-1
  6
CONTINUOUS
 62
     3
100
AcDbVertex
100
AcDb2dVertex
 10
598.9202607972508
 20
67.85600400760131
 30
0.0
  0
VERTEX
  5
57D
330
565
100
AcDbEntity
  8
LAY-1
  6
CONTINUOUS
 62
     3
100
AcDbVertex
100
AcDb2dVertex
 10
599.0000111341321
 20
67.96439222017102
 30
0.0
  0
VERTEX
  5
57E
330
565
100
AcDbEntity
  8
LAY-1
  6
CONTINUOUS
 62
     3
100
AcDbVertex
100
AcDb2dVertex
 10
599.0830568174395
 20
68.07175308023704
 30
0.0
  0
VERTEX
  5
57F
330
565
100
AcDbEntity
  8
LAY-1
  6
CONTINUOUS
 62
     3
100
AcDbVertex
100
AcDb2dVertex
 10
599.1693658327525
 20
68.17804519672069
 30
0.0
  0
VERTEX
  5
580
330
565
100
AcDbEntity
  8
LAY-1
  6
CONTINUOUS
 62
     3
100
AcDbVertex
100
AcDb2dVertex
 10
599.2589049074863
 20
68.28322759053316
 30
0.0
  0
VERTEX
  5
581
330
565
100
AcDbEntity
  8
LAY-1
  6
CONTINUOUS
 62
     3
100
AcDbVertex
100
AcDb2dVertex
 10
599.3516395237168
 20
68.38725971037593
 30
0.0
  0
VERTEX
  5
582
330
565
100
AcDbEntity
  8
LAY-1
  6
CONTINUOUS
 62
     3
100
AcDbVertex
100
AcDb2dVertex
 10
599.447533931486
 20
68.49010144837683
 30
0.0
  0
VERTEX
  5
583
330
565
100
AcDbEntity
  8
LAY-1
  6
CONTINUOUS
 62
     3
100
AcDbVertex
100
AcDb2dVertex
 10
599.5465511625839
 20
68.5917131555542
 30
0.0
  0
VERTEX
  5
584
330
565
100
AcDbEntity
  8
LAY-1
  6
CONTINUOUS
 62
     3
100
AcDbVertex
100
AcDb2dVertex
 10
599.6486530447977
 20
68.69205565710507
 30
0.0
  0
VERTEX
  5
585
330
565
100
AcDbEntity
  8
LAY-1
  6
CONTINUOUS
 62
     3
100
AcDbVertex
100
AcDb2dVertex
 10
599.7538002166275
 20
68.79109026751001
 30
0.0
  0
VERTEX
  5
586
330
565
100
AcDbEntity
  8
LAY-1
  6
CONTINUOUS
 62
     3
100
AcDbVertex
100
AcDb2dVertex
 10
599.8619521424595
 20
68.8887788054493
 30
0.0
  0
VERTEX
  5
587
330
565
100
AcDbEntity
  8
LAY-1
  6
CONTINUOUS
 62
     3
100
AcDbVertex
100
AcDb2dVertex
 10
599.9730671281922
 20
68.98508360852583
 30
0.0
  0
VERTEX
  5
588
330
565
100
AcDbEntity
  8
LAY-1
  6
CONTINUOUS
 62
     3
100
AcDbVertex
100
AcDb2dVertex
 10
600.0871023373096
 20
69.07996754778617
 30
0.0
  0
VERTEX
  5
589
330
565
100
AcDbEntity
  8
LAY-1
  6
CONTINUOUS
 62
     3
100
AcDbVertex
100
AcDb2dVertex
 10
600.2040138073947
 20
69.1733940420375
 30
0.0
  0
VERTEX
  5
58A
330
565
100
AcDbEntity
  8
LAY-1
  6
CONTINUOUS
 62
     3
100
AcDbVertex
100
AcDb2dVertex
 10
600.3237564670779
 20
69.2653270719531
 30
0.0
  0
VERTEX
  5
58B
330
565
100
AcDbEntity
  8
LAY-1
  6
CONTINUOUS
 62
     3
100
AcDbVertex
100
AcDb2dVertex
 10
600.446284153412
 20
69.3557311939602
 30
0.0
  0
VERTEX
  5
58C
330
565
100
AcDbEntity
  8
LAY-1
  6
CONTINUOUS
 62
     3
100
AcDbVertex
100
AcDb2dVertex
 10
600.571549629668
 20
69.44457155390785
 30
0.0
  0
VERTEX
  5
58D
330
565
100
AcDbEntity
  8
LAY-1
  6
CONTINUOUS
 62
     3
100
AcDbVertex
100
AcDb2dVertex
 10
600.6995046035474
 20
69.53181390050503
 30
0.0
  0
VERTEX
  5
58E
330
565
100
AcDbEntity
  8
LAY-1
  6
CONTINUOUS
 62
     3
100
AcDbVertex
100
AcDb2dVertex
 10
600.8300997457987
 20
69.61742459852871
 30
0.0
  0
VERTEX
  5
58F
330
565
100
AcDbEntity
  8
LAY-1
  6
CONTINUOUS
 62
     3
100
AcDbVertex
100
AcDb2dVertex
 10
600.9632847092354
 20
69.70137064179335
 30
0.0
  0
VERTEX
  5
590
330
565
100
AcDbEntity
  8
LAY-1
  6
CONTINUOUS
 62
     3
100
AcDbVertex
100
AcDb2dVertex
 10
601.0990081481459
 20
69.78361966587704
 30
0.0
  0
VERTEX
  5
591
330
565
100
AcDbEntity
  8
LAY-1
  6
CONTINUOUS
 62
     3
100
AcDbVertex
100
AcDb2dVertex
 10
601.2372177380893
 20
69.86413996060236
 30
0.0
  0
VERTEX
  5
592
330
565
100
AcDbEntity
  8
LAY-1
  6
CONTINUOUS
 62
     3
100
AcDbVertex
100
AcDb2dVertex
 10
601.3778601960681
 20
69.9429004822627
 30
0.0
  0
VERTEX
  5
593
330
565
100
AcDbEntity
  8
LAY-1
  6
CONTINUOUS
 62
     3
100
AcDbVertex
100
AcDb2dVertex
 10
601.5208813010701
 20
70.01987086559313
 30
0.0
  0
VERTEX
  5
594
330
565
100
AcDbEntity
  8
LAY-1
  6
CONTINUOUS
 62
     3
100
AcDbVertex
100
AcDb2dVertex
 10
601.666225914974
 20
70.09502143547945
 30
0.0
  0
VERTEX
  5
595
330
565
100
AcDbEntity
  8
LAY-1
  6
CONTINUOUS
 62
     3
100
AcDbVertex
100
AcDb2dVertex
 10
601.8138380038055
 20
70.1683232184003
 30
0.0
  0
VERTEX
  5
596
330
565
100
AcDbEntity
  8
LAY-1
  6
CONTINUOUS
 62
     3
100
AcDbVertex
100
AcDb2dVertex
 10
601.9636606593422
 20
70.23974795360004
 30
0.0
  0
VERTEX
  5
597
330
565
100
AcDbEntity
  8
LAY-1
  6
CONTINUOUS
 62
     3
100
AcDbVertex
100
AcDb2dVertex
 10
602.1156361210543
 20
70.30926810398557
 30
0.0
  0
VERTEX
  5
598
330
565
100
AcDbEntity
  8
LAY-1
  6
CONTINUOUS
 62
     3
100
AcDbVertex
100
AcDb2dVertex
 10
602.269705798373
 20
70.37685686674519
 30
0.0
  0
VERTEX
  5
599
330
565
100
AcDbEntity
  8
LAY-1
  6
CONTINUOUS
 62
     3
100
AcDbVertex
100
AcDb2dVertex
 10
602.4258102932806
 20
70.44248818368368
 30
0.0
  0
VERTEX
  5
59A
330
565
100
AcDbEntity
  8
LAY-1
  6
CONTINUOUS
 62
     3
100
AcDbVertex
100
AcDb2dVertex
 10
602.5838894232118
 20
70.50613675127045
 30
0.0
  0
VERTEX
  5
59B
330
565
100
AcDbEntity
  8
LAY-1
  6
CONTINUOUS
 62
     3
100
AcDbVertex
100
AcDb2dVertex
 10
602.7438822442565
 20
70.5677780303966
 30
0.0
  0
VERTEX
  5
59C
330
565
100
AcDbEntity
  8
LAY-1
  6
CONTINUOUS
 62
     3
100
AcDbVertex
100
AcDb2dVertex
 10
602.9057270746576
 20
70.62738825583745
 30
0.0
  0
VERTEX
  5
59D
330
565
100
AcDbEntity
  8
LAY-1
  6
CONTINUOUS
 62
     3
100
AcDbVertex
100
AcDb2dVertex
 10
603.0693615185925
 20
70.68494444541676
 30
0.0
  0
VERTEX
  5
59E
330
565
100
AcDbEntity
  8
LAY-1
  6
CONTINUOUS
 62
     3
100
AcDbVertex
100
AcDb2dVertex
 10
603.2347224902304
 20
70.7404244088682
 30
0.0
  0
VERTEX
  5
59F
330
565
100
AcDbEntity
  8
LAY-1
  6
CONTINUOUS
 62
     3
100
AcDbVertex
100
AcDb2dVertex
 10
603.4017462380554
 20
70.79380675639277
 30
0.0
  0
VERTEX
  5
5A0
330
565
100
AcDbEntity
  8
LAY-1
  6
CONTINUOUS
 62
     3
100
AcDbVertex
100
AcDb2dVertex
 10
603.5703683694468
 20
70.84507090690624
 30
0.0
  0
VERTEX
  5
5A1
330
565
100
AcDbEntity
  8
LAY-1
  6
CONTINUOUS
 62
     3
100
AcDbVertex
100
AcDb2dVertex
 10
603.7405238755064
 20
70.89419709597593
 30
0.0
  0
VERTEX
  5
5A2
330
565
100
AcDbEntity
  8
LAY-1
  6
CONTINUOUS
 62
     3
100
AcDbVertex
100
AcDb2dVertex
 10
603.9121471561231
 20
70.94116638344161
 30
0.0
  0
VERTEX
  5
5A3
330
565
100
AcDbEntity
  8
LAY-1
  6
CONTINUOUS
 62
     3
100
AcDbVertex
100
AcDb2dVertex
 10
604.0851720452667
 20
70.98596066071883
 30
0.0
  0
VERTEX
  5
5A4
330
565
100
AcDbEntity
  8
LAY-1
  6
CONTINUOUS
 62
     3
100
AcDbVertex
100
AcDb2dVertex
 10
604.2595318364993
 20
71.02856265778229
 30
0.0
  0
VERTEX
  5
5A5
330
565
100
AcDbEntity
  8
LAY-1
  6
CONTINUOUS
 62
     3
100
AcDbVertex
100
AcDb2dVertex
 10
604.4351593086935
 20
71.06895594982473
 30
0.0
  0
VERTEX
  5
5A6
330
565
100
AcDbEntity
  8
LAY-1
  6
CONTINUOUS
 62
     3
100
AcDbVertex
100
AcDb2dVertex
 10
604.6119867519527
 20
71.10712496359076
 30
0.0
  0
VERTEX
  5
5A7
330
565
100
AcDbEntity
  8
LAY-1
  6
CONTINUOUS
 62
     3
100
AcDbVertex
100
AcDb2dVertex
 10
604.7899459937169
 20
71.14305498338172
 30
0.0
  0
VERTEX
  5
5A8
330
565
100
AcDbEntity
  8
LAY-1
  6
CONTINUOUS
 62
     3
100
AcDbVertex
100
AcDb2dVertex
 10
604.9689684250476
 20
71.1767321567304
 30
0.0
  0
VERTEX
  5
5A9
330
565
100
AcDbEntity
  8
LAY-1
  6
CONTINUOUS
 62
     3
100
AcDbVertex
100
AcDb2dVertex
 10
605.1489850270821
 20
71.20814349974245
 30
0.0
  0
VERTEX
  5
5AA
330
565
100
AcDbEntity
  8
LAY-1
  6
CONTINUOUS
 62
     3
100
AcDbVertex
100
AcDb2dVertex
 10
605.3299263976445
 20
71.23727690210302
 30
0.0
  0
VERTEX
  5
5AB
330
565
100
AcDbEntity
  8
LAY-1
  6
CONTINUOUS
 62
     3
100
AcDbVertex
100
AcDb2dVertex
 10
605.5117227780058
 20
71.26412113174638
 30
0.0
  0
VERTEX
  5
5AC
330
565
100
AcDbEntity
  8
LAY-1
  6
CONTINUOUS
 62
     3
100
AcDbVertex
100
AcDb2dVertex
 10
605.6943040797809
 20
71.28866583918739
 30
0.0
  0
VERTEX
  5
5AD
330
565
100
AcDbEntity
  8
LAY-1
  6
CONTINUOUS
 62
     3
100
AcDbVertex
100
AcDb2dVertex
 10
605.8775999119515
 20
71.31090156151168
 30
0.0
  0
VERTEX
  5
5AE
330
565
100
AcDbEntity
  8
LAY-1
  6
CONTINUOUS
 62
     3
100
AcDbVertex
100
AcDb2dVertex
 10
606.0615396080087
 20
71.33081972602508
 30
0.0
  0
VERTEX
  5
5AF
330
565
100
AcDbEntity
  8
LAY-1
  6
CONTINUOUS
 62
     3
100
AcDbVertex
100
AcDb2dVertex
 10
606.2460522531991
 20
71.34841265355868
 30
0.0
  0
VERTEX
  5
5B0
330
565
100
AcDbEntity
  8
LAY-1
  6
CONTINUOUS
 62
     3
100
AcDbVertex
100
AcDb2dVertex
 10
606.4310667118676
 20
71.36367356143012
 30
0.0
  0
VERTEX
  5
5B1
330
565
100
AcDbEntity
  8
LAY-1
  6
CONTINUOUS
 62
     3
100
AcDbVertex
100
AcDb2dVertex
 10
606.6165116548857
 20
71.3765965660586
 30
0.0
  0
VERTEX
  5
5B2
330
565
100
AcDbEntity
  8
LAY-1
  6
CONTINUOUS
 62
     3
100
AcDbVertex
100
AcDb2dVertex
 10
606.8023155871542
 20
71.3871766852339
 30
0.0
  0
VERTEX
  5
5B3
330
565
100
AcDbEntity
  8
LAY-1
  6
CONTINUOUS
 62
     3
100
AcDbVertex
100
AcDb2dVertex
 10
606.9884068751701
 20
71.39540984003673
 30
0.0
  0
VERTEX
  5
5B4
330
565
100
AcDbEntity
  8
LAY-1
  6
CONTINUOUS
 62
     3
100
AcDbVertex
100
AcDb2dVertex
 10
607.1747137746456
 20
71.40129285641177
 30
0.0
  0
VERTEX
  5
5B5
330
565
100
AcDbEntity
  8
LAY-1
  6
CONTINUOUS
 62
     3
100
AcDbVertex
100
AcDb2dVertex
 10
607.3611644581719
 20
71.40482346639152
 30
0.0
  0
VERTEX
  5
5B6
330
565
100
AcDbEntity
  8
LAY-1
  6
CONTINUOUS
 62
     3
100
AcDbVertex
100
AcDb2dVertex
 10
607.5476870429134
 20
71.40600030896991
 30
0.0
  0
VERTEX
  5
5B7
330
565
100
AcDbEntity
  8
LAY-1
  6
CONTINUOUS
 62
     3
100
AcDbVertex
100
AcDb2dVertex
 10
607.734209618324
 20
71.4048229306274
 30
0.0
  0
VERTEX
  5
5B8
330
565
100
AcDbEntity
  8
LAY-1
  6
CONTINUOUS
 62
     3
100
AcDbVertex
100
AcDb2dVertex
 10
607.920660273874
 20
71.40129178550546
 30
0.0
  0
VERTEX
  5
5B9
330
565
100
AcDbEntity
  8
LAY-1
  6
CONTINUOUS
 62
     3
100
AcDbVertex
100
AcDb2dVertex
 10
608.1069671267767
 20
71.39540823523078
 30
0.0
  0
VERTEX
  5
5BA
330
565
100
AcDbEntity
  8
LAY-1
  6
CONTINUOUS
 62
     3
100
AcDbVertex
100
AcDb2dVertex
 10
608.2930583497043
 20
71.38717454839042
 30
0.0
  0
VERTEX
  5
5BB
330
565
100
AcDbEntity
  8
LAY-1
  6
CONTINUOUS
 62
     3
100
AcDbVertex
100
AcDb2dVertex
 10
608.4788621984833
 20
71.37659389965603
 30
0.0
  0
VERTEX
  5
5BC
330
565
100
AcDbEntity
  8
LAY-1
  6
CONTINUOUS
 62
     3
100
AcDbVertex
100
AcDb2dVertex
 10
608.6643070397557
 20
71.36367036855995
 30
0.0
  0
VERTEX
  5
5BD
330
565
100
AcDbEntity
  8
LAY-1
  6
CONTINUOUS
 62
     3
100
AcDbVertex
100
AcDb2dVertex
 10
608.8493213786002
 20
71.34840893792125
 30
0.0
  0
VERTEX
  5
5BE
330
565
100
AcDbEntity
  8
LAY-1
  6
CONTINUOUS
 62
     3
100
AcDbVertex
100
AcDb2dVertex
 10
609.0338338860979
 20
71.330815491924
 30
0.0
  0
VERTEX
  5
5BF
330
565
100
AcDbEntity
  8
LAY-1
  6
CONTINUOUS
 62
     3
100
AcDbVertex
100
AcDb2dVertex
 10
609.2177734268342
 20
71.31089681384782
 30
0.0
  0
VERTEX
  5
5C0
330
565
100
AcDbEntity
  8
LAY-1
  6
CONTINUOUS
 62
     3
100
AcDbVertex
100
AcDb2dVertex
 10
609.4010690863277
 20
71.2886605834521
 30
0.0
  0
VERTEX
  5
5C1
330
565
100
AcDbEntity
  8
LAY-1
  6
CONTINUOUS
 62
     3
100
AcDbVertex
100
AcDb2dVertex
 10
609.5836501983706
 20
71.2641153740139
 30
0.0
  0
VERTEX
  5
5C2
330
565
100
AcDbEntity
  8
LAY-1
  6
CONTINUOUS
 62
     3
100
AcDbVertex
100
AcDb2dVertex
 10
609.7654463722778
 20
71.23727064902135
 30
0.0
  0
VERTEX
  5
5C3
330
565
100
AcDbEntity
  8
LAY-1
  6
CONTINUOUS
 62
     3
100
AcDbVertex
100
AcDb2dVertex
 10
609.9463875200252
 20
71.20813675852446
 30
0.0
  0
VERTEX
  5
5C4
330
565
100
AcDbEntity
  8
LAY-1
  6
CONTINUOUS
 62
     3
100
AcDbVertex
100
AcDb2dVertex
 10
610.1264038832742
 20
71.17672493514334
 30
0.0
  0
VERTEX
  5
5C5
330
565
100
AcDbEntity
  8
LAY-1
  6
CONTINUOUS
 62
     3
100
AcDbVertex
100
AcDb2dVertex
 10
610.305426060268
 20
71.14304728973644
 30
0.0
  0
VERTEX
  5
5C6
330
565
100
AcDbEntity
  8
LAY-1
  6
CONTINUOUS
 62
     3
100
AcDbVertex
100
AcDb2dVertex
 10
610.48338503259
 20
71.10711680672983
 30
0.0
  0
VERTEX
  5
5C7
330
565
100
AcDbEntity
  8
LAY-1
  6
CONTINUOUS
 62
     3
100
AcDbVertex
100
AcDb2dVertex
 10
610.6602121917758
 20
71.06894733911014
 30
0.0
  0
VERTEX
  5
5C8
330
565
100
AcDbEntity
  8
LAY-1
  6
CONTINUOUS
 62
     3
100
AcDbVertex
100
AcDb2dVertex
 10
610.8358393657644
 20
71.02855360308217
 30
0.0
  0
VERTEX
  5
5C9
330
565
100
AcDbEntity
  8
LAY-1
  6
CONTINUOUS
 62
     3
100
AcDbVertex
100
AcDb2dVertex
 10
611.0101988451838
 20
70.98595117239341
 30
0.0
  0
VERTEX
  5
5CA
330
565
100
AcDbEntity
  8
LAY-1
  6
CONTINUOUS
 62
     3
100
AcDbVertex
100
AcDb2dVertex
 10
611.1832234094569
 20
70.94115647232888
 30
0.0
  0
VERTEX
  5
5CB
330
565
100
AcDbEntity
  8
LAY-1
  6
CONTINUOUS
 62
     3
100
AcDbVertex
100
AcDb2dVertex
 10
611.3548463527181
 20
70.89418677337636
 30
0.0
  0
VERTEX
  5
5CC
330
565
100
AcDbEntity
  8
LAY-1
  6
CONTINUOUS
 62
     3
100
AcDbVertex
100
AcDb2dVertex
 10
611.5250015095331
 20
70.8450601845667
 30
0.0
  0
VERTEX
  5
5CD
330
565
100
AcDbEntity
  8
LAY-1
  6
CONTINUOUS
 62
     3
100
AcDbVertex
100
AcDb2dVertex
 10
611.6936232804088
 20
70.79379564649003
 30
0.0
  0
VERTEX
  5
5CE
330
565
100
AcDbEntity
  8
LAY-1
  6
CONTINUOUS
 62
     3
100
AcDbVertex
100
AcDb2dVertex
 10
611.8606466570857
 20
70.7404129239921
 30
0.0
  0
VERTEX
  5
5CF
330
565
100
AcDbEntity
  8
LAY-1
  6
CONTINUOUS
 62
     3
100
AcDbVertex
100
AcDb2dVertex
 10
612.0260072476007
 20
70.68493259855228
 30
0.0
  0
VERTEX
  5
5D0
330
565
100
AcDbEntity
  8
LAY-1
  6
CONTINUOUS
 62
     3
100
AcDbVertex
100
AcDb2dVertex
 10
612.1896413011156
 20
70.62737606034676
 30
0.0
  0
VERTEX
  5
5D1
330
565
100
AcDbEntity
  8
LAY-1
  6
CONTINUOUS
 62
     3
100
AcDbVertex
100
AcDb2dVertex
 10
612.3514857324941
 20
70.56776549999984
 30
0.0
  0
VERTEX
  5
5D2
330
565
100
AcDbEntity
  8
LAY-1
  6
CONTINUOUS
 62
     3
100
AcDbVertex
100
AcDb2dVertex
 10
612.5114781466247
 20
70.50612390002732
 30
0.0
  0
VERTEX
  5
5D3
330
565
100
AcDbEntity
  8
LAY-1
  6
CONTINUOUS
 62
     3
100
AcDbVertex
100
AcDb2dVertex
 10
612.6695568624772
 20
70.44247502597324
 30
0.0
  0
VERTEX
  5
5D4
330
565
100
AcDbEntity
  8
LAY-1
  6
CONTINUOUS
 62
     3
100
AcDbVertex
100
AcDb2dVertex
 10
612.8256609368827
 20
70.37684341724571
 30
0.0
  0
VERTEX
  5
5D5
330
565
100
AcDbEntity
  8
LAY-1
  6
CONTINUOUS
 62
     3
100
AcDbVertex
100
AcDb2dVertex
 10
612.9797301880301
 20
70.30925437765433
 30
0.0
  0
VERTEX
  5
5D6
330
565
100
AcDbEntity
  8
LAY-1
  6
CONTINUOUS
 62
     3
100
AcDbVertex
100
AcDb2dVertex
 10
613.1317052186671
 20
70.23973396565259
 30
0.0
  0
VERTEX
  5
5D7
330
565
100
AcDbEntity
  8
LAY-1
  6
CONTINUOUS
 62
     3
100
AcDbVertex
100
AcDb2dVertex
 10
613.2815274390025
 20
70.16830898428907
 30
0.0
  0
VERTEX
  5
5D8
330
565
100
AcDbEntity
  8
LAY-1
  6
CONTINUOUS
 62
     3
100
AcDbVertex
100
AcDb2dVertex
 10
613.4291390892918
 20
70.09500697087219
 30
0.0
  0
VERTEX
  5
5D9
330
565
100
AcDbEntity
  8
LAY-1
  6
CONTINUOUS
 62
     3
100
AcDbVertex
100
AcDb2dVertex
 10
613.574483262107
 20
70.01985618635132
 30
0.0
  0
VERTEX
  5
5DA
330
565
100
AcDbEntity
  8
LAY-1
  6
CONTINUOUS
 62
     3
100
AcDbVertex
100
AcDb2dVertex
 10
613.717503924276
 20
69.94288560441953
 30
0.0
  0
VERTEX
  5
5DB
330
565
100
AcDbEntity
  8
LAY-1
  6
CONTINUOUS
 62
     3
100
AcDbVertex
100
AcDb2dVertex
 10
613.858145938483
 20
69.86412490034081
 30
0.0
  0
VERTEX
  5
5DC
330
565
100
AcDbEntity
  8
LAY-1
  6
CONTINUOUS
 62
     3
100
AcDbVertex
100
AcDb2dVertex
 10
613.9963550845275
 20
69.78360443950726
 30
0.0
  0
VERTEX
  5
5DD
330
565
100
AcDbEntity
  8
LAY-1
  6
CONTINUOUS
 62
     3
100
AcDbVertex
100
AcDb2dVertex
 10
614.1320780802263
 20
69.70135526572994
 30
0.0
  0
VERTEX
  5
5DE
330
565
100
AcDbEntity
  8
LAY-1
  6
CONTINUOUS
 62
     3
100
AcDbVertex
100
AcDb2dVertex
 10
614.2652626019543
 20
69.61740908926885
 30
0.0
  0
VERTEX
  5
5DF
330
565
100
AcDbEntity
  8
LAY-1
  6
CONTINUOUS
 62
     3
100
AcDbVertex
100
AcDb2dVertex
 10
614.3958573048163
 20
69.53179827460497
 30
0.0
  0
VERTEX
  5
5E0
330
565
100
AcDbEntity
  8
LAY-1
  6
CONTINUOUS
 62
     3
100
AcDbVertex
100
AcDb2dVertex
 10
614.5238118424414
 20
69.44455582796093
 30
0.0
  0
VERTEX
  5
5E1
330
565
100
AcDbEntity
  8
LAY-1
  6
CONTINUOUS
 62
     3
100
AcDbVertex
100
AcDb2dVertex
 10
614.6490768863911
 20
69.35571538457384
 30
0.0
  0
VERTEX
  5
5E2
330
565
100
AcDbEntity
  8
LAY-1
  6
CONTINUOUS
 62
     3
100
AcDbVertex
100
AcDb2dVertex
 10
614.7716041451762
 20
69.26531119572593
 30
0.0
  0
VERTEX
  5
5E3
330
565
100
AcDbEntity
  8
LAY-1
  6
CONTINUOUS
 62
     3
100
AcDbVertex
100
AcDb2dVertex
 10
614.8913463828733
 20
69.17337811553728
 30
0.0
  0
VERTEX
  5
5E4
330
565
100
AcDbEntity
  8
LAY-1
  6
CONTINUOUS
 62
     3
100
AcDbVertex
100
AcDb2dVertex
 10
615.008257437334
 20
69.07995158752675
 30
0.0
  0
VERTEX
  5
5E5
330
565
100
AcDbEntity
  8
LAY-1
  6
CONTINUOUS
 62
     3
100
AcDbVertex
100
AcDb2dVertex
 10
615.1222922379792
 20
68.98506763094537
 30
0.0
  0
VERTEX
  5
5E6
330
565
100
AcDbEntity
  8
LAY-1
  6
CONTINUOUS
 62
     3
100
AcDbVertex
100
AcDb2dVertex
 10
615.2334068231752
 20
68.88876282688756
 30
0.0
  0
VERTEX
  5
5E7
330
565
100
AcDbEntity
  8
LAY-1
  6
CONTINUOUS
 62
     3
100
AcDbVertex
100
AcDb2dVertex
 10
615.3415583571789
 20
68.7910743041864
 30
0.0
  0
VERTEX
  5
5E8
330
565
100
AcDbEntity
  8
LAY-1
  6
CONTINUOUS
 62
     3
100
AcDbVertex
100
AcDb2dVertex
 10
615.4467051466502
 20
68.69203972509735
 30
0.0
  0
VERTEX
  5
5E9
330
565
100
AcDbEntity
  8
LAY-1
  6
CONTINUOUS
 62
     3
100
AcDbVertex
100
AcDb2dVertex
 10
615.5488066567242
 20
68.59169727077642
 30
0.0
  0
VERTEX
  5
5EA
330
565
100
AcDbEntity
  8
LAY-1
  6
CONTINUOUS
 62
     3
100
AcDbVertex
100
AcDb2dVertex
 10
615.6478235266368
 20
68.49008562655837
 30
0.0
  0
VERTEX
  5
5EB
330
565
100
AcDbEntity
  8
LAY-1
  6
CONTINUOUS
 62
     3
100
AcDbVertex
100
AcDb2dVertex
 10
615.7437175848955
 20
68.38724396704083
 30
0.0
  0
VERTEX
  5
5EC
330
565
100
AcDbEntity
  8
LAY-1
  6
CONTINUOUS
 62
     3
100
AcDbVertex
100
AcDb2dVertex
 10
615.8364518639949
 20
68.28321194097913
 30
0.0
  0
VERTEX
  5
5ED
330
565
100
AcDbEntity
  8
LAY-1
  6
CONTINUOUS
 62
     3
100
AcDbVertex
100
AcDb2dVertex
 10
615.9259906146644
 20
68.17802965599947
 30
0.0
  0
VERTEX
  5
5EE
330
565
100
AcDbEntity
  8
LAY-1
  6
CONTINUOUS
 62
     3
100
AcDbVertex
100
AcDb2dVertex
 10
616.0122993196495
 20
68.0717376631344
 30
0.0
  0
VERTEX
  5
5EF
330
565
100
AcDbEntity
  8
LAY-1
  6
CONTINUOUS
 62
     3
100
AcDbVertex
100
AcDb2dVertex
 10
616.0953447070146
 20
67.96437694118737
 30
0.0
  0
VERTEX
  5
5F0
330
565
100
AcDbEntity
  8
LAY-1
  6
CONTINUOUS
 62
     3
100
AcDbVertex
100
AcDb2dVertex
 10
616.1750947629688
 20
67.85598888093352
 30
0.0
  0
VERTEX
  5
5F1
330
565
100
AcDbEntity
  8
LAY-1
  6
CONTINUOUS
 62
     3
100
AcDbVertex
100
AcDb2dVertex
 10
616.251518744204
 20
67.74661526916015
 30
0.0
  0
VERTEX
  5
5F2
330
565
100
AcDbEntity
  8
LAY-1
  6
CONTINUOUS
 62
     3
100
AcDbVertex
100
AcDb2dVertex
 10
616.324587189745
 20
67.63629827255573
 30
0.0
  0
VERTEX
  5
5F3
330
565
100
AcDbEntity
  8
LAY-1
  6
CONTINUOUS
 62
     3
100
AcDbVertex
100
AcDb2dVertex
 10
616.3942719323036
 20
67.52508042145223
 30
0.0
  0
VERTEX
  5
5F4
330
565
100
AcDbEntity
  8
LAY-1
  6
CONTINUOUS
 62
     3
100
AcDbVertex
100
AcDb2dVertex
 10
616.4605461091348
 20
67.41300459342727
 30
0.0
  0
VERTEX
  5
5F5
330
565
100
AcDbEntity
  8
LAY-1
  6
CONTINUOUS
 62
     3
100
AcDbVertex
100
AcDb2dVertex
 10
616.5233841723906
 20
67.3001139967721
 30
0.0
  0
VERTEX
  5
5F6
330
565
100
AcDbEntity
  8
LAY-1
  6
CONTINUOUS
 62
     3
100
AcDbVertex
100
AcDb2dVertex
 10
616.5827618989639
 20
67.18645215383344
 30
0.0
  0
VERTEX
  5
5F7
330
565
100
AcDbEntity
  8
LAY-1
  6
CONTINUOUS
 62
     3
100
AcDbVertex
100
AcDb2dVertex
 10
616.638656399826
 20
67.07206288423225
 30
0.0
  0
VERTEX
  5
5F8
330
565
100
AcDbEntity
  8
LAY-1
  6
CONTINUOUS
 62
     3
100
AcDbVertex
100
AcDb2dVertex
 10
616.6910461288456
 20
66.95699028797014
 30
0.0
  0
VERTEX
  5
5F9
330
565
100
AcDbEntity
  8
LAY-1
  6
CONTINUOUS
 62
     3
100
AcDbVertex
100
AcDb2dVertex
 10
616.7399108910924
 20
66.8412787284264
 30
0.0
  0
VERTEX
  5
5FA
330
565
100
AcDbEntity
  8
LAY-1
  6
CONTINUOUS
 62
     3
100
AcDbVertex
100
AcDb2dVertex
 10
616.7852318506193
 20
66.72497281525409
 30
0.0
  0
VERTEX
  5
5FB
330
565
100
AcDbEntity
  8
LAY-1
  6
CONTINUOUS
 62
     3
100
AcDbVertex
100
AcDb2dVertex
 10
616.82699153772
 20
66.6081173871811
 30
0.0
  0
VERTEX
  5
5FC
330
565
100
AcDbEntity
  8
LAY-1
  6
CONTINUOUS
 62
     3
100
AcDbVertex
100
AcDb2dVertex
 10
616.8651738556605
 20
66.49075749472303
 30
0.0
  0
VERTEX
  5
5FD
330
565
100
AcDbEntity
  8
LAY-1
  6
CONTINUOUS
 62
     3
100
AcDbVertex
100
AcDb2dVertex
 10
616.8997640868804
 20
66.37293838281482
 30
0.0
  0
VERTEX
  5
5FE
330
565
100
AcDbEntity
  8
LAY-1
  6
CONTINUOUS
 62
     3
100
AcDbVertex
100
AcDb2dVertex
 10
616.930748898664
 20
66.2547054733667
 30
0.0
  0
VERTEX
  5
5FF
330
565
100
AcDbEntity
  8
LAY-1
  6
CONTINUOUS
 62
     3
100
AcDbVertex
100
AcDb2dVertex
 10
616.9581163482758
 20
66.13610434775342
 30
0.0
  0
VERTEX
  5
600
330
565
100
AcDbEntity
  8
LAY-1
  6
CONTINUOUS
 62
     3
100
AcDbVertex
100
AcDb2dVertex
 10
616.9818558875603
 20
66.01718072924024
 30
0.0
  0
VERTEX
  5
601
330
565
100
AcDbEntity
  8
LAY-1
  6
CONTINUOUS
 62
     3
100
AcDbVertex
100
AcDb2dVertex
 10
617.0019583670063
 20
65.89798046535617
 30
0.0
  0
VERTEX
  5
602
330
565
100
AcDbEntity
  8
LAY-1
  6
CONTINUOUS
 62
     3
100
AcDbVertex
100
AcDb2dVertex
 10
617.0184160392688
 20
65.77854951021811
 30
0.0
  0
VERTEX
  5
603
330
565
100
AcDbEntity
  8
LAY-1
  6
CONTINUOUS
 62
     3
100
AcDbVertex
100
AcDb2dVertex
 10
617.031222562152
 20
65.65893390681441
 30
0.0
  0
VERTEX
  5
604
330
565
100
AcDbEntity
  8
LAY-1
  6
CONTINUOUS
 62
     3
100
AcDbVertex
100
AcDb2dVertex
 10
617.0403730010514
 20
65.53917976925459
 30
0.0
  0
VERTEX
  5
605
330
565
100
AcDbEntity
  8
LAY-1
  6
CONTINUOUS
 62
     3
100
AcDbVertex
100
AcDb2dVertex
 10
617.0458638308511
 20
65.41933326499117
 30
0.0
  0
VERTEX
  5
606
330
565
100
AcDbEntity
  8
LAY-1
  6
CONTINUOUS
 62
     3
100
AcDbVertex
100
AcDb2dVertex
 10
617.0476929372792
 20
65.29944059702149
 30
0.0
  0
VERTEX
  5
607
330
565
100
AcDbEntity
  8
LAY-1
  6
CONTINUOUS
 62
     3
100
AcDbVertex
100
AcDb2dVertex
 10
617.0458596177197
 20
65.17954798607548
 30
0.0
  0
VERTEX
  5
608
330
565
100
AcDbEntity
  8
LAY-1
  6
CONTINUOUS
 62
     3
100
AcDbVertex
100
AcDb2dVertex
 10
617.0403645814779
 20
65.0597016527974
 30
0.0
  0
VERTEX
  5
609
330
565
100
AcDbEntity
  8
LAY-1
  6
CONTINUOUS
 62
     3
100
AcDbVertex
100
AcDb2dVertex
 10
617.031209949505
 20
64.93994779992693
 30
0.0
  0
VERTEX
  5
60A
330
565
100
AcDbEntity
  8
LAY-1
  6
CONTINUOUS
 62
     3
100
AcDbVertex
100
AcDb2dVertex
 10
617.018399253575
 20
64.82033259448758
 30
0.0
  0
VERTEX
  5
60B
330
565
100
AcDbEntity
  8
LAY-1
  6
CONTINUOUS
 62
     3
100
AcDbVertex
100
AcDb2dVertex
 10
617.0019374349199
 20
64.70090214998919
 30
0.0
  0
VERTEX
  5
60C
330
565
100
AcDbEntity
  8
LAY-1
  6
CONTINUOUS
 62
     3
100
AcDbVertex
100
AcDb2dVertex
 10
616.9818308423212
 20
64.581702508651
 30
0.0
  0
VERTEX
  5
60D
330
565
100
AcDbEntity
  8
LAY-1
  6
CONTINUOUS
 62
     3
100
AcDbVertex
100
AcDb2dVertex
 10
616.958087229658
 20
64.4627796236519
 30
0.0
  0
VERTEX
  5
60E
330
565
100
AcDbEntity
  8
LAY-1
  6
CONTINUOUS
 62
     3
100
AcDbVertex
100
AcDb2dVertex
 10
616.9307157529141
 20
64.34417934141567
 30
0.0
  0
VERTEX
  5
60F
330
565
100
AcDbEntity
  8
LAY-1
  6
CONTINUOUS
 62
     3
100
AcDbVertex
100
AcDb2dVertex
 10
616.8997269666455
 20
64.22594738393752
 30
0.0
  0
VERTEX
  5
610
330
565
100
AcDbEntity
  8
LAY-1
  6
CONTINUOUS
 62
     3
100
AcDbVertex
100
AcDb2dVertex
 10
616.8651328199062
 20
64.10812933115795
 30
0.0
  0
VERTEX
  5
611
330
565
100
AcDbEntity
  8
LAY-1
  6
CONTINUOUS
 62
     3
100
AcDbVertex
100
AcDb2dVertex
 10
616.8269466516397
 20
63.99077060339221
 30
0.0
  0
VERTEX
  5
612
330
565
100
AcDbEntity
  8
LAY-1
  6
CONTINUOUS
 62
     3
100
AcDbVertex
100
AcDb2dVertex
 10
616.7851831855321
 20
63.87391644382097
 30
0.0
  0
VERTEX
  5
613
330
565
100
AcDbEntity
  8
LAY-1
  6
CONTINUOUS
 62
     3
100
AcDbVertex
100
AcDb2dVertex
 10
616.7398585243322
 20
63.75761190104998
 30
0.0
  0
VERTEX
  5
614
330
565
100
AcDbEntity
  8
LAY-1
  6
CONTINUOUS
 62
     3
100
AcDbVertex
100
AcDb2dVertex
 10
616.6909901436421
 20
63.64190181174342
 30
0.0
  0
VERTEX
  5
615
330
565
100
AcDbEntity
  8
LAY-1
  6
CONTINUOUS
 62
     3
100
AcDbVertex
100
AcDb2dVertex
 10
616.6385968851743
 20
63.5268307833411
 30
0.0
  0
VERTEX
  5
616
330
565
100
AcDbEntity
  8
LAY-1
  6
CONTINUOUS
 62
     3
100
AcDbVertex
100
AcDb2dVertex
 10
616.5826989494865
 20
63.41244317686187
 30
0.0
  0
VERTEX
  5
617
330
565
100
AcDbEntity
  8
LAY-1
  6
CONTINUOUS
 62
     3
100
AcDbVertex
100
AcDb2dVertex
 10
616.5233178881905
 20
63.29878308980437
 30
0.0
  0
VERTEX
  5
618
330
565
100
AcDbEntity
  8
LAY-1
  6
CONTINUOUS
 62
     3
100
AcDbVertex
100
AcDb2dVertex
 10
616.4604765956403
 20
63.18589433914735
 30
0.0
  0
VERTEX
  5
619
330
565
100
AcDbEntity
  8
LAY-1
  6
CONTINUOUS
 62
     3
100
AcDbVertex
100
AcDb2dVertex
 10
616.3941993001039
 20
63.07382044445961
 30
0.0
  0
VERTEX
  5
61A
330
565
100
AcDbEntity
  8
LAY-1
  6
CONTINUOUS
 62
     3
100
AcDbVertex
100
AcDb2dVertex
 10
616.3245115544187
 20
62.96260461112422
 30
0.0
  0
VERTEX
  5
61B
330
565
100
AcDbEntity
  8
LAY-1
  6
CONTINUOUS
 62
     3
100
AcDbVertex
100
AcDb2dVertex
 10
616.2514402261396
 20
62.85228971368377
 30
0.0
  0
VERTEX
  5
61C
330
565
100
AcDbEntity
  8
LAY-1
  6
CONTINUOUS
 62
     3
100
AcDbVertex
100
AcDb2dVertex
 10
616.1750134871775
 20
62.74291827931341
 30
0.0
  0
VERTEX
  5
61D
330
565
100
AcDbEntity
  8
LAY-1
  6
CONTINUOUS
 62
     3
100
AcDbVertex
100
AcDb2dVertex
 10
616.0952608029357
 20
62.63453247142809
 30
0.0
  0
VERTEX
  5
61E
330
565
100
AcDbEntity
  8
LAY-1
  6
CONTINUOUS
 62
     3
100
AcDbVertex
100
AcDb2dVertex
 10
616.01221292095
 20
62.52717407342959
 30
0.0
  0
VERTEX
  5
61F
330
565
100
AcDbEntity
  8
LAY-1
  6
CONTINUOUS
 62
     3
100
AcDbVertex
100
AcDb2dVertex
 10
615.9259018590303
 20
62.42088447260033
 30
0.0
  0
VERTEX
  5
620
330
565
100
AcDbEntity
  8
LAY-1
  6
CONTINUOUS
 62
     3
100
AcDbVertex
100
AcDb2dVertex
 10
615.8363608929178
 20
62.31570464415017
 30
0.0
  0
VERTEX
  5
621
330
565
100
AcDbEntity
  8
LAY-1
  6
CONTINUOUS
 62
     3
100
AcDbVertex
100
AcDb2dVertex
 10
615.7436245434525
 20
62.21167513542213
 30
0.0
  0
VERTEX
  5
622
330
565
100
AcDbEntity
  8
LAY-1
  6
CONTINUOUS
 62
     3
100
AcDbVertex
100
AcDb2dVertex
 10
615.6477285632649
 20
62.10883605026203
 30
0.0
  0
VERTEX
  5
623
330
565
100
AcDbEntity
  8
LAY-1
  6
CONTINUOUS
 62
     3
100
AcDbVertex
100
AcDb2dVertex
 10
615.54870992299
 20
62.00722703356115
 30
0.0
  0
VERTEX
  5
624
330
565
100
AcDbEntity
  8
LAY-1
  6
CONTINUOUS
 62
     3
100
AcDbVertex
100
AcDb2dVertex
 10
615.446606797013
 20
61.90688725597397
 30
0.0
  0
VERTEX
  5
625
330
565
100
AcDbEntity
  8
LAY-1
  6
CONTINUOUS
 62
     3
100
AcDbVertex
100
AcDb2dVertex
 10
615.341458548752
 20
61.80785539881981
 30
0.0
  0
VERTEX
  5
626
330
565
100
AcDbEntity
  8
LAY-1
  6
CONTINUOUS
 62
     3
100
AcDbVertex
100
AcDb2dVertex
 10
615.2333057154804
 20
61.71016963917276
 30
0.0
  0
VERTEX
  5
627
330
565
100
AcDbEntity
  8
LAY-1
  6
CONTINUOUS
 62
     3
100
AcDbVertex
100
AcDb2dVertex
 10
615.1221899926986
 20
61.61386763514651
 30
0.0
  0
VERTEX
  5
628
330
565
100
AcDbEntity
  8
LAY-1
  6
CONTINUOUS
 62
     3
100
AcDbVertex
100
AcDb2dVertex
 10
615.0081542180596
 20
61.51898651137816
 30
0.0
  0
VERTEX
  5
629
330
565
100
AcDbEntity
  8
LAY-1
  6
CONTINUOUS
 62
     3
100
AcDbVertex
100
AcDb2dVertex
 10
614.8912423548518
 20
61.42556284471937
 30
0.0
  0
VERTEX
  5
62A
330
565
100
AcDbEntity
  8
LAY-1
  6
CONTINUOUS
 62
     3
100
AcDbVertex
100
AcDb2dVertex
 10
614.7714994750517
 20
61.33363265013696
 30
0.0
  0
VERTEX
  5
62B
330
565
100
AcDbEntity
  8
LAY-1
  6
CONTINUOUS
 62
     3
100
AcDbVertex
100
AcDb2dVertex
 10
614.6489717419455
 20
61.24323136683176
 30
0.0
  0
VERTEX
  5
62C
330
565
100
AcDbEntity
  8
LAY-1
  6
CONTINUOUS
 62
     3
100
AcDbVertex
100
AcDb2dVertex
 10
614.5237063923341
 20
61.15439384457767
 30
0.0
  0
VERTEX
  5
62D
330
565
100
AcDbEntity
  8
LAY-1
  6
CONTINUOUS
 62
     3
100
AcDbVertex
100
AcDb2dVertex
 10
614.3957517183211
 20
61.06715433029024
 30
0.0
  0
VERTEX
  5
62E
330
565
100
AcDbEntity
  8
LAY-1
  6
CONTINUOUS
 62
     3
100
AcDbVertex
100
AcDb2dVertex
 10
614.2651570486953
 20
60.98154645482515
 30
0.0
  0
VERTEX
  5
62F
330
565
100
AcDbEntity
  8
LAY-1
  6
CONTINUOUS
 62
     3
100
AcDbVertex
100
AcDb2dVertex
 10
614.1319727299149
 20
60.89760322001592
 30
0.0
  0
VERTEX
  5
630
330
565
100
AcDbEntity
  8
LAY-1
  6
CONTINUOUS
 62
     3
100
AcDbVertex
100
AcDb2dVertex
 10
613.9962501066971
 20
60.81535698595394
 30
0.0
  0
VERTEX
  5
631
330
565
100
AcDbEntity
  8
LAY-1
  6
CONTINUOUS
 62
     3
100
AcDbVertex
100
AcDb2dVertex
 10
613.8580415022252
 20
60.73483945851456
 30
0.0
  0
VERTEX
  5
632
330
565
100
AcDbEntity
  8
LAY-1
  6
CONTINUOUS
 62
     3
100
AcDbVertex
100
AcDb2dVertex
 10
613.7174001979771
 20
60.65608167713765
 30
0.0
  0
VERTEX
  5
633
330
565
100
AcDbEntity
  8
LAY-1
  6
CONTINUOUS
 62
     3
100
AcDbVertex
100
AcDb2dVertex
 10
613.5743804131858
 20
60.57911400286247
 30
0.0
  0
VERTEX
  5
634
330
565
100
AcDbEntity
  8
LAY-1
  6
CONTINUOUS
 62
     3
100
AcDbVertex
100
AcDb2dVertex
 10
613.4290372839378
 20
60.50396610662642
 30
0.0
  0
VERTEX
  5
635
330
565
100
AcDbEntity
  8
LAY-1
  6
CONTINUOUS
 62
     3
100
AcDbVertex
100
AcDb2dVertex
 10
613.2814268419172
 20
60.43066695782812
 30
0.0
  0
VERTEX
  5
636
330
565
100
AcDbEntity
  8
LAY-1
  6
CONTINUOUS
 62
     3
100
AcDbVertex
100
AcDb2dVertex
 10
613.1316059928073
 20
60.35924481316158
 30
0.0
  0
VERTEX
  5
637
330
565
100
AcDbEntity
  8
LAY-1
  6
CONTINUOUS
 62
     3
100
AcDbVertex
100
AcDb2dVertex
 10
612.9796324943533
 20
60.28972720572546
 30
0.0
  0
VERTEX
  5
638
330
565
100
AcDbEntity
  8
LAY-1
  6
CONTINUOUS
 62
     3
100
AcDbVertex
100
AcDb2dVertex
 10
612.825564934096
 20
60.2221409344105
 30
0.0
  0
VERTEX
  5
639
330
565
100
AcDbEntity
  8
LAY-1
  6
CONTINUOUS
 62
     3
100
AcDbVertex
100
AcDb2dVertex
 10
612.6694627067889
 20
60.15651205357017
 30
0.0
  0
VERTEX
  5
63A
330
565
100
AcDbEntity
  8
LAY-1
  6
CONTINUOUS
 62
     3
100
AcDbVertex
100
AcDb2dVertex
 10
612.511385991501
 20
60.0928658629789
 30
0.0
  0
VERTEX
  5
63B
330
565
100
AcDbEntity
  8
LAY-1
  6
CONTINUOUS
 62
     3
100
AcDbVertex
100
AcDb2dVertex
 10
612.3513957284191
 20
60.03122689808038
 30
0.0
  0
VERTEX
  5
63C
330
565
100
AcDbEntity
  8
LAY-1
  6
CONTINUOUS
 62
     3
100
AcDbVertex
100
AcDb2dVertex
 10
612.1895535953561
 20
59.97161892053089
 30
0.0
  0
VERTEX
  5
63D
330
565
100
AcDbEntity
  8
LAY-1
  6
CONTINUOUS
 62
     3
100
AcDbVertex
100
AcDb2dVertex
 10
612.0259219839752
 20
59.91406490904075
 30
0.0
  0
VERTEX
  5
63E
330
565
100
AcDbEntity
  8
LAY-1
  6
CONTINUOUS
 62
     3
100
AcDbVertex
100
AcDb2dVertex
 10
611.8605639757403
 20
59.85858705051749
 30
0.0
  0
VERTEX
  5
63F
330
565
100
AcDbEntity
  8
LAY-1
  6
CONTINUOUS
 62
     3
100
AcDbVertex
100
AcDb2dVertex
 10
611.6935433175973
 20
59.80520673151477
 30
0.0
  0
VERTEX
  5
640
330
565
100
AcDbEntity
  8
LAY-1
  6
CONTINUOUS
 62
     3
100
AcDbVertex
100
AcDb2dVertex
 10
611.5249243974034
 20
59.75394452998887
 30
0.0
  0
VERTEX
  5
641
330
565
100
AcDbEntity
  8
LAY-1
  6
CONTINUOUS
 62
     3
100
AcDbVertex
100
AcDb2dVertex
 10
611.3547722191051
 20
59.70482020736728
 30
0.0
  0
VERTEX
  5
642
330
565
100
AcDbEntity
  8
LAY-1
  6
CONTINUOUS
 62
     3
100
AcDbVertex
100
AcDb2dVertex
 10
611.1831523776821
 20
59.65785270093238
 30
0.0
  0
VERTEX
  5
643
330
565
100
AcDbEntity
  8
LAY-1
  6
CONTINUOUS
 62
     3
100
AcDbVertex
100
AcDb2dVertex
 10
611.0101310338615
 20
59.61306011652232
 30
0.0
  0
VERTEX
  5
644
330
565
100
AcDbEntity
  8
LAY-1
  6
CONTINUOUS
 62
     3
100
AcDbVertex
100
AcDb2dVertex
 10
610.8357748886153
 20
59.57045972155214
 30
0.0
  0
VERTEX
  5
645
330
565
100
AcDbEntity
  8
LAY-1
  6
CONTINUOUS
 62
     3
100
AcDbVertex
100
AcDb2dVertex
 10
610.6601511574486
 20
59.5300679383588
 30
0.0
  0
VERTEX
  5
646
330
565
100
AcDbEntity
  8
LAY-1
  6
CONTINUOUS
 62
     3
100
AcDbVertex
100
AcDb2dVertex
 10
610.4833275444895
 20
59.49190033787102
 30
0.0
  0
VERTEX
  5
647
330
565
100
AcDbEntity
  8
LAY-1
  6
CONTINUOUS
 62
     3
100
AcDbVertex
100
AcDb2dVertex
 10
610.3053722163921
 20
59.4559716336085
 30
0.0
  0
VERTEX
  5
648
330
565
100
AcDbEntity
  8
LAY-1
  6
CONTINUOUS
 62
     3
100
AcDbVertex
100
AcDb2dVertex
 10
610.1263537760605
 20
59.42229567600987
 30
0.0
  0
VERTEX
  5
649
330
565
100
AcDbEntity
  8
LAY-1
  6
CONTINUOUS
 62
     3
100
AcDbVertex
100
AcDb2dVertex
 10
609.9463412362034
 20
59.390885447095
 30
0.0
  0
VERTEX
  5
64A
330
565
100
AcDbEntity
  8
LAY-1
  6
CONTINUOUS
 62
     3
100
AcDbVertex
100
AcDb2dVertex
 10
609.7654039927329
 20
59.36175305546072
 30
0.0
  0
VERTEX
  5
64B
330
565
100
AcDbEntity
  8
LAY-1
  6
CONTINUOUS
 62
     3
100
AcDbVertex
100
AcDb2dVertex
 10
609.5836117980142
 20
59.33490973161435
 30
0.0
  0
VERTEX
  5
64C
330
565
100
AcDbEntity
  8
LAY-1
  6
CONTINUOUS
 62
     3
100
AcDbVertex
100
AcDb2dVertex
 10
609.4010347339793
 20
59.31036582364447
 30
0.0
  0
VERTEX
  5
64D
330
565
100
AcDbEntity
  8
LAY-1
  6
CONTINUOUS
 62
     3
100
AcDbVertex
100
AcDb2dVertex
 10
609.2177431851113
 20
59.28813079323254
 30
0.0
  0
VERTEX
  5
64E
330
565
100
AcDbEntity
  8
LAY-1
  6
CONTINUOUS
 62
     3
100
AcDbVertex
100
AcDb2dVertex
 10
609.033807811315
 20
59.268213212006
 30
0.0
  0
VERTEX
  5
64F
330
565
100
AcDbEntity
  8
LAY-1
  6
CONTINUOUS
 62
     3
100
AcDbVertex
100
AcDb2dVertex
 10
608.8492995206792
 20
59.25062075823445
 30
0.0
  0
VERTEX
  5
650
330
565
100
AcDbEntity
  8
LAY-1
  6
CONTINUOUS
 62
     3
100
AcDbVertex
100
AcDb2dVertex
 10
608.6642894421446
 20
59.23536021386946
 30
0.0
  0
VERTEX
  5
651
330
565
100
AcDbEntity
  8
LAY-1
  6
CONTINUOUS
 62
     3
100
AcDbVertex
100
AcDb2dVertex
 10
608.4788488980856
 20
59.22243746193146
 30
0.0
  0
VERTEX
  5
652
330
565
100
AcDbEntity
  8
LAY-1
  6
CONTINUOUS
 62
     3
100
AcDbVertex
100
AcDb2dVertex
 10
608.2930493768188
 20
59.21185748424108
 30
0.0
  0
VERTEX
  5
653
330
565
100
AcDbEntity
  8
LAY-1
  6
CONTINUOUS
 62
     3
100
AcDbVertex
100
AcDb2dVertex
 10
608.1069625050454
 20
59.20362435949949
 30
0.0
  0
VERTEX
  5
654
330
565
100
AcDbEntity
  8
LAY-1
  6
CONTINUOUS
 62
     3
100
AcDbVertex
100
AcDb2dVertex
 10
607.9206600202441
 20
59.19774126171558
 30
0.0
  0
VERTEX
  5
655
330
565
100
AcDbEntity
  8
LAY-1
  6
CONTINUOUS
 62
     3
100
AcDbVertex
100
AcDb2dVertex
 10
607.7342137430164
 20
59.1942104589823
 30
0.0
  0
VERTEX
  5
656
330
565
100
AcDbEntity
  8
LAY-1
  6
CONTINUOUS
 62
     3
100
AcDbVertex
100
AcDb2dVertex
 10
607.5476955494036
 20
59.19303331260312
 30
0.0
  0
VERTEX
  5
657
330
565
100
AcDbEntity
  8
LAY-1
  6
CONTINUOUS
 62
     3
100
AcDbVertex
100
AcDb2dVertex
 10
607.3611773431811
 20
59.19421027656591
 30
0.0
  0
VERTEX
  5
658
330
565
100
AcDbEntity
  8
LAY-1
  6
CONTINUOUS
 62
     3
100
AcDbVertex
100
AcDb2dVertex
 10
607.1747310281418
 20
59.19774089736825
 30
0.0
  0
VERTEX
  5
659
330
565
100
AcDbEntity
  8
LAY-1
  6
CONTINUOUS
 62
     3
100
AcDbVertex
100
AcDb2dVertex
 10
606.9884284803794
 20
59.20362381419176
 30
0.0
  0
VERTEX
  5
65A
330
565
100
AcDbEntity
  8
LAY-1
  6
CONTINUOUS
 62
     3
100
AcDbVertex
100
AcDb2dVertex
 10
606.8023415205835
 20
59.21185675942615
 30
0.0
  0
VERTEX
  5
65B
330
565
100
AcDbEntity
  8
LAY-1
  6
CONTINUOUS
 62
     3
100
AcDbVertex
100
AcDb2dVertex
 10
606.6165418863544
 20
59.22243655954333
 30
0.0
  0
VERTEX
  5
65C
330
565
100
AcDbEntity
  8
LAY-1
  6
CONTINUOUS
 62
     3
100
AcDbVertex
100
AcDb2dVertex
 10
606.431101204551
 20
59.2353591363194
 30
0.0
  0
VERTEX
  5
65D
330
565
100
AcDbEntity
  8
LAY-1
  6
CONTINUOUS
 62
     3
100
AcDbVertex
100
AcDb2dVertex
 10
606.2460909636816
 20
59.25061950840683
 30
0.0
  0
VERTEX
  5
65E
330
565
100
AcDbEntity
  8
LAY-1
  6
CONTINUOUS
 62
     3
100
AcDbVertex
100
AcDb2dVertex
 10
606.0615824863464
 20
59.26821179325378
 30
0.0
  0
VERTEX
  5
65F
330
565
100
AcDbEntity
  8
LAY-1
  6
CONTINUOUS
 62
     3
100
AcDbVertex
100
AcDb2dVertex
 10
605.877646901745
 20
59.28812920937094
 30
0.0
  0
VERTEX
  5
660
330
565
100
AcDbEntity
  8
LAY-1
  6
CONTINUOUS
 62
     3
100
AcDbVertex
100
AcDb2dVertex
 10
605.6943551182598
 20
59.31036407894487
 30
0.0
  0
VERTEX
  5
661
330
565
100
AcDbEntity
  8
LAY-1
  6
CONTINUOUS
 62
     3
100
AcDbVertex
100
AcDb2dVertex
 10
605.511777796121
 20
59.33490783079691
 30
0.0
  0
VERTEX
  5
662
330
565
100
AcDbEntity
  8
LAY-1
  6
CONTINUOUS
 62
     3
100
AcDbVertex
100
AcDb2dVertex
 10
605.3299853201707
 20
59.36175100368609
 30
0.0
  0
VERTEX
  5
663
330
565
100
AcDbEntity
  8
LAY-1
  6
CONTINUOUS
 62
     3
100
AcDbVertex
100
AcDb2dVertex
 10
605.1490477727307
 20
59.39088324995589
 30
0.0
  0
VERTEX
  5
664
330
565
100
AcDbEntity
  8
LAY-1
  6
CONTINUOUS
 62
     3
100
AcDbVertex
100
AcDb2dVertex
 10
604.9690349065881
 20
59.42229333952139
 30
0.0
  0
VERTEX
  5
665
330
565
100
AcDbEntity
  8
LAY-1
  6
CONTINUOUS
 62
     3
100
AcDbVertex
100
AcDb2dVertex
 10
604.7900161181077
 20
59.45596916419771
 30
0.0
  0
VERTEX
  5
666
330
565
100
AcDbEntity
  8
LAY-1
  6
CONTINUOUS
 62
     3
100
AcDbVertex
100
AcDb2dVertex
 10
604.6120604204809
 20
59.49189774236589
 30
0.0
  0
VERTEX
  5
667
330
565
100
AcDbEntity
  8
LAY-1
  6
CONTINUOUS
 62
     3
100
AcDbVertex
100
AcDb2dVertex
 10
604.4352364171233
 20
59.53006522397675
 30
0.0
  0
VERTEX
  5
668
330
565
100
AcDbEntity
  8
LAY-1
  6
CONTINUOUS
 62
     3
100
AcDbVertex
100
AcDb2dVertex
 10
604.2596122752293
 20
59.57045689588767
 30
0.0
  0
VERTEX
  5
669
330
565
100
AcDbEntity
  8
LAY-1
  6
CONTINUOUS
 62
     3
100
AcDbVertex
100
AcDb2dVertex
 10
604.0852556994961
 20
59.61305718753368
 30
0.0
  0
VERTEX
  5
66A
330
565
100
AcDbEntity
  8
LAY-1
  6
CONTINUOUS
 62
     3
100
AcDbVertex
100
AcDb2dVertex
 10
603.9122339060231
 20
59.65784967692821
 30
0.0
  0
VERTEX
  5
66B
330
565
100
AcDbEntity
  8
LAY-1
  6
CONTINUOUS
 62
     3
100
AcDbVertex
100
AcDb2dVertex
 10
603.7406135964039
 20
59.70481709699214
 30
0.0
  0
VERTEX
  5
66C
330
565
100
AcDbEntity
  8
LAY-1
  6
CONTINUOUS
 62
     3
100
AcDbVertex
100
AcDb2dVertex
 10
603.5704609320113
 20
59.75394134220863
 30
0.0
  0
VERTEX
  5
66D
330
565
100
AcDbEntity
  8
LAY-1
  6
CONTINUOUS
 62
     3
100
AcDbVertex
100
AcDb2dVertex
 10
603.4018415084959
 20
59.80520347560099
 30
0.0
  0
VERTEX
  5
66E
330
565
100
AcDbEntity
  8
LAY-1
  6
CONTINUOUS
 62
     3
100
AcDbVertex
100
AcDb2dVertex
 10
603.2348203304978
 20
59.85858373603145
 30
0.0
  0
VERTEX
  5
66F
330
565
100
AcDbEntity
  8
LAY-1
  6
CONTINUOUS
 62
     3
100
AcDbVertex
100
AcDb2dVertex
 10
603.0694617865893
 20
59.91406154581682
 30
0.0
  0
VERTEX
  5
670
330
565
100
AcDbEntity
  8
LAY-1
  6
CONTINUOUS
 62
     3
100
AcDbVertex
100
AcDb2dVertex
 10
602.9058296244534
 20
59.97161551865997
 30
0.0
  0
VERTEX
  5
671
330
565
100
AcDbEntity
  8
LAY-1
  6
CONTINUOUS
 62
     3
100
AcDbVertex
100
AcDb2dVertex
 10
602.7439869263095
 20
60.03122346789223
 30
0.0
  0
VERTEX
  5
672
330
565
100
AcDbEntity
  8
LAY-1
  6
CONTINUOUS
 62
     3
100
AcDbVertex
100
AcDb2dVertex
 10
602.5839960845973
 20
60.09286241502383
 30
0.0
  0
VERTEX
  5
673
330
565
100
AcDbEntity
  8
LAY-1
  6
CONTINUOUS
 62
     3
100
AcDbVertex
100
AcDb2dVertex
 10
602.4259187779218
 20
60.15650859860148
 30
0.0
  0
VERTEX
  5
674
330
565
100
AcDbEntity
  8
LAY-1
  6
CONTINUOUS
 62
     3
100
AcDbVertex
100
AcDb2dVertex
 10
602.2698159472794
 20
60.22213748336526
 30
0.0
  0
VERTEX
  5
675
330
565
100
AcDbEntity
  8
LAY-1
  6
CONTINUOUS
 62
     3
100
AcDbVertex
100
AcDb2dVertex
 10
602.1157477725633
 20
60.28972376970597
 30
0.0
  0
VERTEX
  5
676
330
565
100
AcDbEntity
  8
LAY-1
  6
CONTINUOUS
 62
     3
100
AcDbVertex
100
AcDb2dVertex
 10
601.963773649366
 20
60.3592414034153
 30
0.0
  0
VERTEX
  5
677
330
565
100
AcDbEntity
  8
LAY-1
  6
CONTINUOUS
 62
     3
100
AcDbVertex
100
AcDb2dVertex
 10
601.8139521660796
 20
60.43066358572872
 30
0.0
  0
VERTEX
  5
678
330
565
100
AcDbEntity
  8
LAY-1
  6
CONTINUOUS
 62
     3
100
AcDbVertex
100
AcDb2dVertex
 10
601.6663410813119
 20
60.50396278365361
 30
0.0
  0
VERTEX
  5
679
330
565
100
AcDbEntity
  8
LAY-1
  6
CONTINUOUS
 62
     3
100
AcDbVertex
100
AcDb2dVertex
 10
601.520997301619
 20
60.57911074058183
 30
0.0
  0
VERTEX
  5
67A
330
565
100
AcDbEntity
  8
LAY-1
  6
CONTINUOUS
 62
     3
100
AcDbVertex
100
AcDb2dVertex
 10
601.3779768595673
 20
60.65607848718048
 30
0.0
  0
VERTEX
  5
67B
330
565
100
AcDbEntity
  8
LAY-1
  6
CONTINUOUS
 62
     3
100
AcDbVertex
100
AcDb2dVertex
 10
601.2373348921326
 20
60.73483635255724
 30
0.0
  0
VERTEX
  5
67C
330
565
100
AcDbEntity
  8
LAY-1
  6
CONTINUOUS
 62
     3
100
AcDbVertex
100
AcDb2dVertex
 10
601.0991256194432
 20
60.81535397569735
 30
0.0
  0
VERTEX
  5
67D
330
565
100
AcDbEntity
  8
LAY-1
  6
CONTINUOUS
 62
     3
100
AcDbVertex
100
AcDb2dVertex
 10
600.963402323878
 20
60.89760031716492
 30
0.0
  0
VERTEX
  5
67E
330
565
100
AcDbEntity
  8
LAY-1
  6
CONTINUOUS
 62
     3
100
AcDbVertex
100
AcDb2dVertex
 10
600.8302173295243
 20
60.98154367106741
 30
0.0
  0
VERTEX
  5
67F
330
565
100
AcDbEntity
  8
LAY-1
  6
CONTINUOUS
 62
     3
100
AcDbVertex
100
AcDb2dVertex
 10
600.6996219820062
 20
61.06715167727583
 30
0.0
  0
VERTEX
  5
680
330
565
100
AcDbEntity
  8
LAY-1
  6
CONTINUOUS
 62
     3
100
AcDbVertex
100
AcDb2dVertex
 10
600.5716666286884
 20
61.15439133389816
 30
0.0
  0
VERTEX
  5
681
330
565
100
AcDbEntity
  8
LAY-1
  6
CONTINUOUS
 62
     3
100
AcDbVertex
100
AcDb2dVertex
 10
600.4464005992673
 20
61.24322900999931
 30
0.0
  0
VERTEX
  5
682
330
565
100
AcDbEntity
  8
LAY-1
  6
CONTINUOUS
 62
     3
100
AcDbVertex
100
AcDb2dVertex
 10
600.3238721867516
 20
61.3336304585639
 30
0.0
  0
VERTEX
  5
683
330
565
100
AcDbEntity
  8
LAY-1
  6
CONTINUOUS
 62
     3
100
AcDbVertex
100
AcDb2dVertex
 10
600.2041286288434
 20
61.42556082969719
 30
0.0
  0
VERTEX
  5
684
330
565
100
AcDbEntity
  8
LAY-1
  6
CONTINUOUS
 62
     3
100
AcDbVertex
100
AcDb2dVertex
 10
600.0872160897272
 20
61.51898468405744
 30
0.0
  0
VERTEX
  5
685
330
565
100
AcDbEntity
  8
LAY-1
  6
CONTINUOUS
 62
     3
100
AcDbVertex
100
AcDb2dVertex
 10
599.9731796422711
 20
61.61386600651628
 30
0.0
  0
VERTEX
  5
686
330
565
100
AcDbEntity
  8
LAY-1
  6
CONTINUOUS
 62
     3
100
AcDbVertex
100
AcDb2dVertex
 10
599.8620632506479
 20
61.71016822004094
 30
0.0
  0
VERTEX
  5
687
330
565
100
AcDbEntity
  8
LAY-1
  6
CONTINUOUS
 62
     3
100
AcDbVertex
100
AcDb2dVertex
 10
599.7539097533862
 20
61.8078541997927
 30
0.0
  0
VERTEX
  5
688
330
565
100
AcDbEntity
  8
LAY-1
  6
CONTINUOUS
 62
     3
100
AcDbVertex
100
AcDb2dVertex
 10
599.6487608468536
 20
61.90688628743715
 30
0.0
  0
VERTEX
  5
689
330
565
100
AcDbEntity
  8
LAY-1
  6
CONTINUOUS
 62
     3
100
AcDbVertex
100
AcDb2dVertex
 10
599.5466570691791
 20
62.00722630565986
 30
0.0
  0
VERTEX
  5
68A
330
565
100
AcDbEntity
  8
LAY-1
  6
CONTINUOUS
 62
     3
100
AcDbVertex
100
AcDb2dVertex
 10
599.4476377846232
 20
62.10883557288247
 30
0.0
  0
VERTEX
  5
68B
330
565
100
AcDbEntity
  8
LAY-1
  6
CONTINUOUS
 62
     3
100
AcDbVertex
100
AcDb2dVertex
 10
599.3517411684018
 20
62.21167491817243
 30
0.0
  0
VERTEX
  5
68C
330
565
100
AcDbEntity
  8
LAY-1
  6
CONTINUOUS
 62
     3
100
AcDbVertex
100
AcDb2dVertex
 10
599.2590041919644
 20
62.31570469634272
 30
0.0
  0
VERTEX
  5
68D
330
565
100
AcDbEntity
  8
LAY-1
  6
CONTINUOUS
 62
     3
100
AcDbVertex
100
AcDb2dVertex
 10
599.1694626087404
 20
62.42088480323326
 30
0.0
  0
VERTEX
  5
68E
330
565
100
AcDbEntity
  8
LAY-1
  6
CONTINUOUS
 62
     3
100
AcDbVertex
100
AcDb2dVertex
 10
599.0831509403524
 20
62.52717469117016
 30
0.0
  0
VERTEX
  5
68F
330
565
100
AcDbEntity
  8
LAY-1
  6
CONTINUOUS
 62
     3
100
AcDbVertex
100
AcDb2dVertex
 10
599.0001024633052
 20
62.63453338459527
 30
0.0
  0
VERTEX
  5
690
330
565
100
AcDbEntity
  8
LAY-1
  6
CONTINUOUS
 62
     3
100
AcDbVertex
100
AcDb2dVertex
 10
598.9203491961537
 20
62.74291949586154
 30
0.0
  0
VERTEX
  5
691
330
565
100
AcDbEntity
  8
LAY-1
  6
CONTINUOUS
 62
     3
100
AcDbVertex
100
AcDb2dVertex
 10
598.8439218871573
 20
62.85229124118678
 30
0.0
  0
VERTEX
  5
692
330
565
100
AcDbEntity
  8
LAY-1
  6
CONTINUOUS
 62
     3
100
AcDbVertex
100
AcDb2dVertex
 10
598.7708500024227
 20
62.96260645676051
 30
0.0
  0
VERTEX
  5
693
330
565
100
AcDbEntity
  8
LAY-1
  6
CONTINUOUS
 62
     3
100
AcDbVertex
100
AcDb2dVertex
 10
598.7011617145408
 20
63.07382261499686
 30
0.0
  0
VERTEX
  5
694
330
565
100
AcDbEntity
  8
LAY-1
  6
CONTINUOUS
 62
     3
100
AcDbVertex
100
AcDb2dVertex
 10
598.6348838917231
 20
63.18589684092854
 30
0.0
  0
VERTEX
  5
695
330
565
100
AcDbEntity
  8
LAY-1
  6
CONTINUOUS
 62
     3
100
AcDbVertex
100
AcDb2dVertex
 10
598.5720420874403
 20
63.29878592873462
 30
0.0
  0
VERTEX
  5
696
330
565
100
AcDbEntity
  8
LAY-1
  6
CONTINUOUS
 62
     3
100
AcDbVertex
100
AcDb2dVertex
 10
598.5126605305666
 20
63.4124463583949
 30
0.0
  0
VERTEX
  5
697
330
565
100
AcDbEntity
  8
LAY-1
  6
CONTINUOUS
 62
     3
100
AcDbVertex
100
AcDb2dVertex
 10
598.4567621160377
 20
63.52683431246777
 30
0.0
  0
VERTEX
  5
698
330
565
100
AcDbEntity
  8
LAY-1
  6
CONTINUOUS
 62
     3
100
AcDbVertex
100
AcDb2dVertex
 10
598.4043683960191
 20
63.64190569297978
 30
0.0
  0
VERTEX
  5
699
330
565
100
AcDbEntity
  8
LAY-1
  6
CONTINUOUS
 62
     3
100
AcDbVertex
100
AcDb2dVertex
 10
598.355499571595
 20
63.75761613842633
 30
0.0
  0
VERTEX
  5
69A
330
565
100
AcDbEntity
  8
LAY-1
  6
CONTINUOUS
 62
     3
100
AcDbVertex
100
AcDb2dVertex
 10
598.3101744849762
 20
63.8739210408724
 30
0.0
  0
VERTEX
  5
69B
330
565
100
AcDbEntity
  8
LAY-1
  6
CONTINUOUS
 62
     3
100
AcDbVertex
100
AcDb2dVertex
 10
598.2684106122325
 20
63.99077556314825
 30
0.0
  0
VERTEX
  5
69C
330
565
100
AcDbEntity
  8
LAY-1
  6
CONTINUOUS
 62
     3
100
AcDbVertex
100
AcDb2dVertex
 10
598.2302240565521
 20
64.10813465613529
 30
0.0
  0
VERTEX
  5
69D
330
565
100
AcDbEntity
  8
LAY-1
  6
CONTINUOUS
 62
     3
100
AcDbVertex
100
AcDb2dVertex
 10
598.1956295420296
 20
64.22595307613108
 30
0.0
  0
VERTEX
  5
69E
330
565
100
AcDbEntity
  8
LAY-1
  6
CONTINUOUS
 62
     3
100
AcDbVertex
100
AcDb2dVertex
 10
598.164640407985
 20
64.34418540229234
 30
0.0
  0
VERTEX
  5
69F
330
565
100
AcDbEntity
  8
LAY-1
  6
CONTINUOUS
 62
     3
100
AcDbVertex
100
AcDb2dVertex
 10
598.1372686038187
 20
64.4627860541438
 30
0.0
  0
VERTEX
  5
6A0
330
565
100
AcDbEntity
  8
LAY-1
  6
CONTINUOUS
 62
     3
100
AcDbVertex
100
AcDb2dVertex
 10
598.1135246844003
 20
64.58170930915043
 30
0.0
  0
VERTEX
  5
6A1
330
565
100
AcDbEntity
  8
LAY-1
  6
CONTINUOUS
 62
     3
100
AcDbVertex
100
AcDb2dVertex
 10
598.0934178059953
 20
64.70090932034395
 30
0.0
  0
VERTEX
  5
6A2
330
565
100
AcDbEntity
  8
LAY-1
  6
CONTINUOUS
 62
     3
100
AcDbVertex
100
AcDb2dVertex
 10
598.0769557227312
 20
64.82034013399709
 30
0.0
  0
VERTEX
  5
6A3
330
565
100
AcDbEntity
  8
LAY-1
  6
CONTINUOUS
 62
     3
100
AcDbVertex
100
AcDb2dVertex
 10
598.0641447836052
 20
64.93995570733955
 30
0.0
  0
VERTEX
  5
6A4
330
565
100
AcDbEntity
  8
LAY-1
  6
CONTINUOUS
 62
     3
100
AcDbVertex
100
AcDb2dVertex
 10
598.0549899300318
 20
65.05970992630824
 30
0.0
  0
VERTEX
  5
6A5
330
565
100
AcDbEntity
  8
LAY-1
  6
CONTINUOUS
 62
     3
100
AcDbVertex
100
AcDb2dVertex
 10
598.0494946939335
 20
65.17955662332514
 30
0.0
  0
VERTEX
  5
6A6
330
565
100
AcDbEntity
  8
LAY-1
  6
CONTINUOUS
 62
     3
100
AcDbVertex
100
AcDb2dVertex
 10
598.0476611963767
 20
65.29944959509544
 30
0.0
  0
SEQEND
  5
6A7
330
565
100
AcDbEntity
  8
LAY-1
  6
CONTINUOUS
 62
     3
  0
LINE
  5
6A8
330
1F
100
AcDbEntity
  8
LAY-1
  6
CONTINUOUS
 62
     3
100
AcDbLine
 10
596.95183555465
 20
70.48454248392
 30
0.0
 11
596.95183555465
 21
63.47446978494003
 31
0.0
  0
LINE
  5
6A9
330
1F
100
AcDbEntity
  8
LAY-1
  6
CONTINUOUS
 62
     3
100
AcDbLine
 10
599.79075759393
 20
77.29551731187001
 30
0.0
 11
599.79075759393
 21
70.28544461289005
 31
0.0
  0
LINE
  5
6AA
330
1F
100
AcDbEntity
  8
LAY-1
  6
CONTINUOUS
 62
     3
100
AcDbLine
 10
610.38692216155
 20
79.12047470314002
 30
0.0
 11
610.38692216155
 21
72.11040200416005
 31
0.0
  0
LINE
  5
6AB
330
1F
100
AcDbEntity
  8
LAY-1
  6
CONTINUOUS
 62
     3
100
AcDbLine
 10
618.14354979677
 20
74.13452309951003
 30
0.0
 11
618.14354979677
 21
67.12445040053007
 31
0.0
  0
LINE
  5
6AC
330
1F
100
AcDbEntity
  8
LAY-1
  6
CONTINUOUS
 62
     3
100
AcDbLine
 10
618.14354979677
 20
74.13452309950998
 30
0.0
 11
610.38692216155
 21
79.12047470314002
 31
0.0
  0
LINE
  5
6AD
330
1F
100
AcDbEntity
  8
LAY-1
  6
CONTINUOUS
 62
     3
100
AcDbLine
 10
610.38692216155
 20
79.12047470314002
 30
0.0
 11
599.79075759393
 21
77.29551731187001
 31
0.0
  0
LINE
  5
6AE
330
1F
100
AcDbEntity
  8
LAY-1
  6
CONTINUOUS
 62
     3
100
AcDbLine
 10
599.79075759393
 20
77.29551731187001
 30
0.0
 11
596.95183555465
 21
70.48454248392
 31
0.0
  0
ELLIPSE
  5
6AF
330
1F
100
AcDbEntity
  8
LAY-1
  6
CONTINUOUS
 62
     3
100
AcDbEllipse
 10
518.5
 20
72.309539774146
 30
0.0
 11
14.0
 21
0.0
 31
0.0
210
0.0
220
0.0
230
1.0
 40
0.6405962909521433
 41
3.141592653589793
 42
3.889676555495016
  0
LINE
  5
6B0
330
1F
100
AcDbEntity
  8
LAY-1
  6
CONTINUOUS
 62
     3
100
AcDbLine
 10
528.8408164258152
 20
63.341191700816
 30
0.0
 11
563.0
 21
63.34119170081601
 31
0.0
  0
CIRCLE
  5
6B1
330
1F
100
AcDbEntity
  8
LAY-1
  6
CONTINUOUS
 62
     3
100
AcDbCircle
 10
563.0
 20
217.0
 30
0.0
 40
32.5
  0
CIRCLE
  5
6B2
330
1F
100
AcDbEntity
  8
LAY-1
  6
CONTINUOUS
 62
     3
100
AcDbCircle
 10
563.0
 20
217.0
 30
0.0
 40
58.0
  0
CIRCLE
  5
6B3
330
1F
100
AcDbEntity
  8
LAY-1
  6
CONTINUOUS
 62
     3
100
AcDbCircle
 10
563.0
 20
217.0
 30
0.0
 40
87.5
  0
LINE
  5
6B4
330
1F
100
AcDbEntity
  8
LAY-1
  6
CONTINUOUS
 62
     3
100
AcDbLine
 10
607.5
 20
138.54734203414
 30
0.0
 11
601.748296195985
 21
138.54734203414
 31
0.0
  0
LINE
  5
6B5
330
1F
100
AcDbEntity
  8
LAY-1
  6
CONTINUOUS
 62
     3
100
AcDbLine
 10
518.5
 20
138.54734203414
 30
0.0
 11
524.251703804015
 21
138.54734203414
 31
0.0
  0
ELLIPSE
  5
6B6
330
1F
100
AcDbEntity
  8
LAY-1
  6
CONTINUOUS
 62
     3
100
AcDbEllipse
 10
518.5
 20
143.36779393695
 30
0.0
 11
-14.0
 21
1.714505518806294E-15
 31
0.0
210
0.0
220
0.0
230
1.0
 40
0.6405962909521423
 41
5.585312406852585
 42
6.283185307179586
  0
ELLIPSE
  5
6B7
330
1F
100
AcDbEntity
  8
LAY-1
  6
CONTINUOUS
 62
     3
100
AcDbEllipse
 10
518.5
 20
145.29964787931
 30
0.0
 11
-14.0
 21
1.714505518806294E-15
 31
0.0
210
0.0
220
0.0
230
1.0
 40
0.6405962909521423
 41
5.722716265967803
 42
6.283185307179586
  0
LINE
  5
6B8
330
1F
100
AcDbEntity
  8
LAY-1
  6
CONTINUOUS
 62
     3
100
AcDbLine
 10
504.5
 20
151.9308060600102
 30
0.0
 11
504.5
 21
145.29964787931
 31
0.0
  0
ELLIPSE
  5
6B9
330
1F
100
AcDbEntity
  8
LAY-1
  6
CONTINUOUS
 62
     3
100
AcDbEllipse
 10
607.5
 20
145.29964787931
 30
0.0
 11
-14.0
 21
1.714505518806294E-15
 31
0.0
210
0.0
220
0.0
230
1.0
 40
0.6405962909521423
 41
3.141592653589791
 42
3.702061694801575
  0
ELLIPSE
  5
6BA
330
1F
100
AcDbEntity
  8
LAY-1
  6
CONTINUOUS
 62
     3
100
AcDbEllipse
 10
607.5
 20
143.36779393695
 30
0.0
 11
-14.0
 21
1.714505518806294E-15
 31
0.0
210
0.0
220
0.0
230
1.0
 40
0.6405962909521423
 41
3.141592653589791
 42
3.839465553916794
  0
LINE
  5
6BB
330
1F
100
AcDbEntity
  8
LAY-1
  6
CONTINUOUS
 62
     3
100
AcDbLine
 10
621.5
 20
151.9308060600102
 30
0.0
 11
621.5
 21
145.29964787931
 31
0.0
  0
LINE
  5
6BC
330
1F
100
AcDbEntity
  8
LAY-1
  6
EXLTYPE2
 62
     1
100
AcDbLine
 10
467.0
 20
217.0
 30
0.0
 11
658.0
 21
217.0
 31
0.0
  0
LINE
  5
6BD
330
1F
100
AcDbEntity
  8
LAY-1
  6
EXLTYPE2
 62
     1
100
AcDbLine
 10
563.0
 20
312.0
 30
0.0
 11
563.0
 21
56.0
 31
0.0
  0
CIRCLE
  5
6BE
330
1F
100
AcDbEntity
  8
LAY-1
  6
EXLTYPE2
 62
     1
100
AcDbCircle
 10
563.0
 20
217.0
 30
0.0
 40
70.0
  0
CIRCLE
  5
6BF
330
1F
100
AcDbEntity
  8
LAY-1
  6
CONTINUOUS
 62
     3
100
AcDbCircle
 10
612.49747468305
 20
266.49747468306
 30
0.0
 40
9.5
  0
LINE
  5
6C0
330
1F
100
AcDbEntity
  8
LAY-1
  6
EXLTYPE2
 62
     1
100
AcDbLine
 10
604.0121933088141
 20
258.0121933088254
 30
0.0
 11
622.4999999999943
 21
276.5000000000057
 31
0.0
  0
CIRCLE
  5
6C1
330
1F
100
AcDbEntity
  8
LAY-1
  6
CONTINUOUS
 62
     3
100
AcDbCircle
 10
612.49747468305
 20
167.5025253169401
 30
0.0
 40
9.5
  0
LINE
  5
6C2
330
1F
100
AcDbEntity
  8
LAY-1
  6
EXLTYPE2
 62
     1
100
AcDbLine
 10
604.0121933088141
 20
175.9878066911747
 30
0.0
 11
622.4999999999943
 21
157.4999999999944
 31
0.0
  0
CIRCLE
  5
6C3
330
1F
100
AcDbEntity
  8
LAY-1
  6
CONTINUOUS
 62
     3
100
AcDbCircle
 10
513.50252531695
 20
266.49747468306
 30
0.0
 40
9.5
  0
LINE
  5
6C4
330
1F
100
AcDbEntity
  8
LAY-1
  6
EXLTYPE2
 62
     1
100
AcDbLine
 10
521.9878066911859
 20
258.0121933088254
 30
0.0
 11
503.5000000000057
 21
276.5000000000057
 31
0.0
  0
CIRCLE
  5
6C5
330
1F
100
AcDbEntity
  8
LAY-1
  6
CONTINUOUS
 62
     3
100
AcDbCircle
 10
513.50252531695
 20
167.5025253169401
 30
0.0
 40
9.5
  0
LINE
  5
6C6
330
1F
100
AcDbEntity
  8
LAY-1
  6
EXLTYPE2
 62
     1
100
AcDbLine
 10
521.9878066911859
 20
175.9878066911747
 30
0.0
 11
503.5000000000056
 21
157.4999999999944
 31
0.0
  0
ELLIPSE
  5
6C7
330
1F
100
AcDbEntity
  8
LAY-1
  6
CONTINUOUS
 62
     3
100
AcDbEllipse
 10
563.0
 20
88.361531783137
 30
0.0
 11
-8.331000000000017
 21
1.020253248369662E-15
 31
0.0
210
0.0
220
0.0
230
1.0
 40
0.6427876096865921
 41
3.141592653589793
 42
6.283185307179586
  0
LINE
  5
6C8
330
1F
100
AcDbEntity
  8
LAY-1
  6
CONTINUOUS
 62
     3
100
AcDbLine
 10
554.492
 20
84.033380679516
 30
0.0
 11
554.669
 21
88.361531783137
 31
0.0
  0
LINE
  5
6C9
330
1F
100
AcDbEntity
  8
LAY-1
  6
CONTINUOUS
 62
     3
100
AcDbLine
 10
571.508
 20
84.033380679516
 30
0.0
 11
571.331
 21
88.361531783137
 31
0.0
  0
LINE
  5
6CA
330
1F
100
AcDbEntity
  8
LAY-1
  6
CONTINUOUS
 62
     3
100
AcDbLine
 10
555.348
 20
77.707893588292
 30
0.0
 11
555.348
 21
76.570067794602
 31
0.0
  0
LINE
  5
6CB
330
1F
100
AcDbEntity
  8
LAY-1
  6
CONTINUOUS
 62
     3
100
AcDbLine
 10
570.6520000000002
 20
77.707893588292
 30
0.0
 11
570.6520000000002
 21
76.57006779460198
 31
0.0
  0
LINE
  5
6CC
330
1F
100
AcDbEntity
  8
LAY-1
  6
CONTINUOUS
 62
     3
100
AcDbLine
 10
555.348
 20
77.707893588292
 30
0.0
 11
562.115
 21
82.024301526686
 31
0.0
  0
LINE
  5
6CD
330
1F
100
AcDbEntity
  8
LAY-1
  6
CONTINUOUS
 62
     3
100
AcDbLine
 10
563.885
 20
82.024301526686
 30
0.0
 11
570.652
 21
77.707893588292
 31
0.0
  0
LINE
  5
6CE
330
1F
100
AcDbEntity
  8
LAY-1
  6
CONTINUOUS
 62
     3
100
AcDbLine
 10
570.652
 20
76.570067794602
 30
0.0
 11
563.885
 21
72.25365985620701
 31
0.0
  0
LINE
  5
6CF
330
1F
100
AcDbEntity
  8
LAY-1
  6
CONTINUOUS
 62
     3
100
AcDbLine
 10
555.348
 20
76.570067794602
 30
0.0
 11
562.1150000000001
 21
72.25365985620692
 31
0.0
  0
ARC
  5
6D0
330
1F
100
AcDbEntity
  8
LAY-1
  6
CONTINUOUS
 62
     3
100
AcDbCircle
 10
563.0
 20
84.09901978365158
 30
0.0
 40
11.87837433366663
100
AcDbArc
 50
265.7272103600985
 51
274.2727896399015
  0
ARC
  5
6D1
330
1F
100
AcDbEntity
  8
LAY-1
  6
CONTINUOUS
 62
     3
100
AcDbCircle
 10
563.0
 20
70.1789415996096
 30
0.0
 40
11.87837433329945
100
AcDbArc
 50
85.72721035996618
 51
94.27278964003386
  0
LINE
  5
6D2
330
1F
100
AcDbEntity
  8
LAY-1
  6
CONTINUOUS
 62
     3
100
AcDbLine
 10
555.348
 20
84.56950977055101
 30
0.0
 11
562.115
 21
88.88591770894499
 31
0.0
  0
LINE
  5
6D3
330
1F
100
AcDbEntity
  8
LAY-1
  6
CONTINUOUS
 62
     3
100
AcDbLine
 10
570.6520000000002
 20
84.56950977055101
 30
0.0
 11
563.8850000000001
 21
88.88591770894499
 31
0.0
  0
LINE
  5
6D4
330
1F
100
AcDbEntity
  8
LAY-1
  6
CONTINUOUS
 62
     3
100
AcDbLine
 10
570.652
 20
77.707893588292
 30
0.0
 11
570.652
 21
84.60277528685302
 31
0.0
  0
LINE
  5
6D5
330
1F
100
AcDbEntity
  8
LAY-1
  6
CONTINUOUS
 62
     3
100
AcDbLine
 10
555.348
 20
77.707893588292
 30
0.0
 11
555.348
 21
84.56950977055101
 31
0.0
  0
ARC
  5
6D6
330
1F
100
AcDbEntity
  8
LAY-1
  6
CONTINUOUS
 62
     3
100
AcDbCircle
 10
563.0
 20
77.0405577818686
 30
0.0
 40
11.87837433329945
100
AcDbArc
 50
85.72721035996618
 51
94.27278964003386
  0
ELLIPSE
  5
6D7
330
1F
100
AcDbEntity
  8
LAY-1
  6
CONTINUOUS
 62
     3
100
AcDbEllipse
 10
563.0
 20
84.033380679516
 30
0.0
 11
8.508000000000038
 21
0.0
 31
0.0
210
0.0
220
0.0
230
1.0
 40
0.6427552227726822
 41
5.830758353976035
 42
9.877204913972928
  0
LINE
  5
6D8
330
1F
100
AcDbEntity
  8
LAY-1
  6
CONTINUOUS
 62
     3
100
AcDbLine
 10
562.1150000000001
 20
88.88591770894465
 30
0.0
 11
562.1150000000001
 21
82.024301526686
 31
0.0
  0
LINE
  5
6D9
330
1F
100
AcDbEntity
  8
LAY-1
  6
CONTINUOUS
 62
     3
100
AcDbLine
 10
563.885
 20
88.88591770894465
 30
0.0
 11
563.885
 21
82.024301526686
 31
0.0
  0
ELLIPSE
  5
6DA
330
1F
100
AcDbEntity
  8
LAY-1
  6
CONTINUOUS
 62
     3
100
AcDbEllipse
 10
563.0
 20
88.361531783137
 30
0.0
 11
16.0
 21
0.0
 31
0.0
210
0.0
220
0.0
230
1.0
 40
0.6427876096865619
 41
5.211049950644007
 42
10.49691331730496
  0
ELLIPSE
  5
6DB
330
1F
100
AcDbEntity
  8
LAY-1
  6
CONTINUOUS
 62
     3
100
AcDbEllipse
 10
563.0
 20
90.65966511249499
 30
0.0
 11
16.0
 21
0.0
 31
0.0
210
0.0
220
0.0
230
1.0
 40
0.6427876096865619
 41
0.0
 42
3.141592653589793
  0
LINE
  5
6DC
330
1F
100
AcDbEntity
  8
LAY-1
  6
CONTINUOUS
 62
     3
100
AcDbLine
 10
547.0
 20
90.659665112495
 30
0.0
 11
547.0
 21
88.36153178313701
 31
0.0
  0
LINE
  5
6DD
330
1F
100
AcDbEntity
  8
LAY-1
  6
CONTINUOUS
 62
     3
100
AcDbLine
 10
579.0
 20
90.659665112495
 30
0.0
 11
579.0
 21
88.36153178313701
 31
0.0
  0
LINE
  5
6DE
330
1F
100
AcDbEntity
  8
LAY-1
  6
CONTINUOUS
 62
     3
100
AcDbLine
 10
157.57808549004
 20
423.7124936784064
 30
0.0
 11
175.0000000000001
 21
426.5
 31
0.0
  0
ARC
  5
6DF
330
1F
100
AcDbEntity
  8
LAY-1
  6
CONTINUOUS
 62
     3
100
AcDbCircle
 10
159.0000000000001
 20
414.825527991156
 30
0.0
 40
9.0
100
AcDbArc
 50
99.09027692082238
 51
180.0
  0
LINE
  5
6E0
330
1F
100
AcDbEntity
  8
LAY-1
  6
CONTINUOUS
 62
     3
100
AcDbLine
 10
195.4825820738201
 20
426.5000000000001
 30
0.0
 11
175.0000000000002
 21
426.5
 31
0.0
  0
ARC
  5
6E1
330
1F
100
AcDbEntity
  8
LAY-1
  6
CONTINUOUS
 62
     3
100
AcDbCircle
 10
249.1365234592802
 20
414.7486231404279
 30
0.0
 40
30.0
100
AcDbArc
 50
54.83668133237284
 51
127.5680945951786
  0
LINE
  5
6E2
330
1F
100
AcDbEntity
  8
LAY-1
  6
CONTINUOUS
 62
     3
100
AcDbLine
 10
306.7274288312589
 20
426.5000000000001
 30
0.0
 11
359.0
 21
426.5000000000001
 31
0.0
  0
ARC
  5
6E3
330
1F
100
AcDbEntity
  8
LAY-1
  6
CONTINUOUS
 62
     3
100
AcDbCircle
 10
254.56628311679
 20
441.8336604902226
 30
0.0
 40
73.43533950977742
100
AcDbArc
 50
71.43340547545425
 51
127.8891506384947
  0
ELLIPSE
  5
6E4
330
1F
100
AcDbEntity
  8
LAY-1
  6
CONTINUOUS
 62
     3
100
AcDbEllipse
 10
314.4033263907
 20
508.5
 30
0.0
 11
-2.571758278209442E-15
 21
-14.0
 31
0.0
210
0.0
220
0.0
230
1.0
 40
0.7648581692328581
 41
1.570796326794897
 42
3.141592653589793
  0
ELLIPSE
  5
6E5
330
1F
100
AcDbEntity
  8
LAY-1
  6
CONTINUOUS
 62
     3
100
AcDbEllipse
 10
325.31076242214
 20
508.5
 30
0.0
 11
-2.571758278209441E-15
 21
-14.0
 31
0.0
210
0.0
220
0.0
230
1.0
 40
0.7648581692328582
 41
1.570796326794897
 42
3.141592653589793
  0
ELLIPSE
  5
6E6
330
1F
100
AcDbEntity
  8
LAY-1
  6
CONTINUOUS
 62
     3
100
AcDbEllipse
 10
326.91773144635
 20
508.5
 30
0.0
 11
-2.571758278209441E-15
 21
-14.0
 31
0.0
210
0.0
220
0.0
230
1.0
 40
0.7648581692328582
 41
1.570796326794897
 42
3.141592653589793
  0
ELLIPSE
  5
6E7
330
1F
100
AcDbEntity
  8
LAY-1
  6
CONTINUOUS
 62
     3
100
AcDbEllipse
 10
338.48790842071
 20
508.5
 30
0.0
 11
-2.571758278209441E-15
 21
-14.0
 31
0.0
210
0.0
220
0.0
230
1.0
 40
0.7648581692328582
 41
1.570796326794897
 42
3.141592653589793
  0
LINE
  5
6E8
330
1F
100
AcDbEntity
  8
LAY-1
  6
CONTINUOUS
 62
     3
100
AcDbLine
 10
326.91773144635
 20
522.5
 30
0.0
 11
338.48790842071
 21
522.5
 31
0.0
  0
LINE
  5
6E9
330
1F
100
AcDbEntity
  8
LAY-1
  6
CONTINUOUS
 62
     3
100
AcDbLine
 10
325.11134075996
 20
508.5
 30
0.0
 11
325.11134075996
 21
501.5
 31
0.0
  0
LINE
  5
6EA
330
1F
100
AcDbEntity
  8
LAY-1
  6
CONTINUOUS
 62
     3
100
AcDbLine
 10
336.0187767914
 20
508.5
 30
0.0
 11
336.0187767914
 21
501.5
 31
0.0
  0
LINE
  5
6EB
330
1F
100
AcDbEntity
  8
LAY-1
  6
CONTINUOUS
 62
     3
100
AcDbLine
 10
337.62574581561
 20
508.5
 30
0.0
 11
337.62574581561
 21
501.5
 31
0.0
  0
LINE
  5
6EC
330
1F
100
AcDbEntity
  8
LAY-1
  6
CONTINUOUS
 62
     3
100
AcDbLine
 10
349.19592278997
 20
508.5
 30
0.0
 11
349.19592278997
 21
501.5
 31
0.0
  0
ELLIPSE
  5
6ED
330
1F
100
AcDbEntity
  8
LAY-1
  6
CONTINUOUS
 62
     1
100
AcDbEllipse
 10
314.4033263907
 20
508.548
 30
0.0
 11
-9.282210414137359E-16
 21
-5.052999999999998
 31
0.0
210
0.0
220
0.0
230
1.0
 40
0.7660444431189392
 41
0.0
 42
6.283185307179586
  0
ELLIPSE
  5
6EE
330
1F
100
AcDbEntity
  8
LAY-1
  6
CONTINUOUS
 62
     3
100
AcDbEllipse
 10
314.4033263907
 20
508.548
 30
0.0
 11
-1.102182119232618E-15
 21
-6.0
 31
0.0
210
0.0
220
0.0
230
1.0
 40
0.766044443118337
 41
0.0
 42
6.283185307179586
  0
LINE
  5
6EF
330
1F
100
AcDbEntity
  8
LAY-1
  6
CONTINUOUS
 62
     3
100
AcDbLine
 10
352.2235397336972
 20
516.304337765059
 30
0.0
 11
345.4126640902333
 21
519.1435497967658
 31
0.0
  0
LINE
  5
6F0
330
1F
100
AcDbEntity
  8
LAY-1
  6
CONTINUOUS
 62
     3
100
AcDbLine
 10
354.0485298760363
 20
505.7085640885238
 30
0.0
 11
352.2235883662751
 21
516.3044134240087
 31
0.0
  0
LINE
  5
6F1
330
1F
100
AcDbEntity
  8
LAY-1
  6
CONTINUOUS
 62
     3
100
AcDbLine
 10
351.343315438011
 20
501.5
 30
0.0
 11
354.0485021510307
 21
505.7086072214125
 31
0.0
  0
LINE
  5
6F2
330
1F
100
AcDbEntity
  8
LAY-1
  6
CONTINUOUS
 62
     3
100
AcDbLine
 10
352.22360616687
 20
516.3043100714299
 30
0.0
 11
347.377809361394
 21
516.3043100714299
 31
0.0
  0
LINE
  5
6F3
330
1F
100
AcDbEntity
  8
LAY-1
  6
CONTINUOUS
 62
     3
100
AcDbLine
 10
354.04851815809
 20
505.70863212447
 30
0.0
 11
349.19592278997
 21
505.70863212447
 31
0.0
  0
ELLIPSE
  5
6F4
330
1F
100
AcDbEntity
  8
LAY-1
  6
CONTINUOUS
 62
     3
100
AcDbEllipse
 10
246.1522486178201
 20
508.5
 30
0.0
 11
-2.571758278209441E-15
 21
-14.0
 31
0.0
210
0.0
220
0.0
230
1.0
 40
0.7648581692328582
 41
3.141592653589793
 42
4.394312360207321
  0
LINE
  5
6F5
330
1F
100
AcDbEntity
  8
LAY-1
  6
CONTINUOUS
 62
     3
100
AcDbLine
 10
280.2777875042601
 20
522.5
 30
0.0
 11
325.31076242214
 21
522.5
 31
0.0
  0
LINE
  5
6F6
330
1F
100
AcDbEntity
  8
LAY-1
  6
CONTINUOUS
 62
     3
100
AcDbLine
 10
283.7
 20
522.5
 30
0.0
 11
246.1522486178201
 21
522.5
 31
0.0
  0
ARC
  5
6F7
330
1F
100
AcDbEntity
  8
LAY-1
  6
CONTINUOUS
 62
     3
100
AcDbCircle
 10
225.1365234592797
 20
467.2622339081992
 30
0.0
 40
20.0
100
AcDbArc
 50
0.0
 51
38.70582125962058
  0
ARC
  5
6F8
330
1F
100
AcDbEntity
  8
LAY-1
  6
CONTINUOUS
 62
     3
100
AcDbCircle
 10
195.4825820738243
 20
443.5
 30
0.0
 40
57.99999999999999
100
AcDbArc
 50
38.70582125962052
 51
90.00000000000001
  0
ARC
  5
6F9
330
1F
100
AcDbEntity
  8
LAY-1
  6
CONTINUOUS
 62
     3
100
AcDbCircle
 10
254.56628311679
 20
486.1663395097775
 30
0.0
 40
73.43533950977742
100
AcDbArc
 50
232.1108493615054
 51
288.5665945245457
  0
ELLIPSE
  5
6FA
330
1F
100
AcDbEntity
  8
LAY-1
  6
CONTINUOUS
 62
     3
100
AcDbEllipse
 10
277.94858521074
 20
464.0
 30
0.0
 11
-8.715872501871670E-15
 21
-47.447
 31
0.0
210
0.0
220
0.0
230
1.0
 40
0.7660410904099301
 41
2.472660727370792
 42
3.141592653589793
  0
ELLIPSE
  5
6FB
330
1F
100
AcDbEntity
  8
LAY-1
  6
CONTINUOUS
 62
     3
100
AcDbEllipse
 10
277.94858521074
 20
464.0000000000001
 30
0.0
 11
-1.816540990579870E-14
 21
47.447
 31
0.0
210
0.0
220
0.0
230
1.0
 40
0.7660410904099301
 41
3.141592653589793
 42
3.810524579808795
  0
ARC
  5
6FC
330
1F
100
AcDbEntity
  8
LAY-1
  6
CONTINUOUS
 62
     3
100
AcDbCircle
 10
273.1365234592799
 20
468.5358080280525
 30
0.0
 40
20.0
100
AcDbArc
 50
132.2075427583078
 51
180.0
  0
ARC
  5
6FD
330
1F
100
AcDbEntity
  8
LAY-1
  6
CONTINUOUS
 62
     3
100
AcDbCircle
 10
306.7274288312589
 20
431.5
 30
0.0
 40
70.0
100
AcDbArc
 50
90.00000000000001
 51
132.2075427583079
  0
ARC
  5
6FE
330
1F
100
AcDbEntity
  8
LAY-1
  6
CONTINUOUS
 62
     3
100
AcDbCircle
 10
273.1365234592799
 20
459.4641919719476
 30
0.0
 40
20.0
100
AcDbArc
 50
180.0
 51
227.7924572416922
  0
ARC
  5
6FF
330
1F
100
AcDbEntity
  8
LAY-1
  6
CONTINUOUS
 62
     3
100
AcDbCircle
 10
225.1365234592797
 20
460.7377660918009
 30
0.0
 40
20.0
100
AcDbArc
 50
321.2941787403796
 51
0.0
  0
ELLIPSE
  5
700
330
1F
100
AcDbEntity
  8
LAY-1
  6
CONTINUOUS
 62
     3
100
AcDbEllipse
 10
314.4033263907
 20
419.5000000000001
 30
0.0
 11
-5.359996178497728E-15
 21
14.0
 31
0.0
210
0.0
220
0.0
230
1.0
 40
0.7648581692328582
 41
3.141592653589793
 42
4.71238898038469
  0
ELLIPSE
  5
701
330
1F
100
AcDbEntity
  8
LAY-1
  6
CONTINUOUS
 62
     3
100
AcDbEllipse
 10
325.31076242214
 20
419.5000000000001
 30
0.0
 11
-5.359996178497728E-15
 21
14.0
 31
0.0
210
0.0
220
0.0
230
1.0
 40
0.7648581692328582
 41
3.141592653589793
 42
4.71238898038469
  0
ELLIPSE
  5
702
330
1F
100
AcDbEntity
  8
LAY-1
  6
CONTINUOUS
 62
     3
100
AcDbEllipse
 10
326.91773144635
 20
419.5000000000001
 30
0.0
 11
-5.359996178497728E-15
 21
14.0
 31
0.0
210
0.0
220
0.0
230
1.0
 40
0.7648581692328582
 41
3.141592653589793
 42
4.71238898038469
  0
ELLIPSE
  5
703
330
1F
100
AcDbEntity
  8
LAY-1
  6
CONTINUOUS
 62
     3
100
AcDbEllipse
 10
338.48790842071
 20
419.5000000000001
 30
0.0
 11
-5.359996178497728E-15
 21
14.0
 31
0.0
210
0.0
220
0.0
230
1.0
 40
0.7648581692328582
 41
3.141592653589793
 42
4.71238898038469
  0
LINE
  5
704
330
1F
100
AcDbEntity
  8
LAY-1
  6
CONTINUOUS
 62
     3
100
AcDbLine
 10
326.91773144635
 20
405.5000000000001
 30
0.0
 11
338.48790842071
 21
405.5000000000001
 31
0.0
  0
LINE
  5
705
330
1F
100
AcDbEntity
  8
LAY-1
  6
CONTINUOUS
 62
     3
100
AcDbLine
 10
325.1113407599601
 20
419.5000000000001
 30
0.0
 11
325.1113407599601
 21
426.5000000000001
 31
0.0
  0
LINE
  5
706
330
1F
100
AcDbEntity
  8
LAY-1
  6
CONTINUOUS
 62
     3
100
AcDbLine
 10
336.0187767914
 20
419.5000000000001
 30
0.0
 11
336.0187767914
 21
426.5000000000001
 31
0.0
  0
LINE
  5
707
330
1F
100
AcDbEntity
  8
LAY-1
  6
CONTINUOUS
 62
     3
100
AcDbLine
 10
337.62574581561
 20
419.5000000000001
 30
0.0
 11
337.62574581561
 21
426.5000000000001
 31
0.0
  0
LINE
  5
708
330
1F
100
AcDbEntity
  8
LAY-1
  6
CONTINUOUS
 62
     3
100
AcDbLine
 10
349.19592278997
 20
419.5000000000001
 30
0.0
 11
349.19592278997
 21
426.5000000000001
 31
0.0
  0
ELLIPSE
  5
709
330
1F
100
AcDbEntity
  8
LAY-1
  6
CONTINUOUS
 62
     1
100
AcDbEllipse
 10
314.4033263907
 20
419.4520000000001
 30
0.0
 11
-1.934575763567787E-15
 21
5.052999999999998
 31
0.0
210
0.0
220
0.0
230
1.0
 40
0.7660444431189392
 41
0.0
 42
6.283185307179586
  0
ELLIPSE
  5
70A
330
1F
100
AcDbEntity
  8
LAY-1
  6
CONTINUOUS
 62
     3
100
AcDbEllipse
 10
314.4033263907
 20
419.4520000000001
 30
0.0
 11
-2.297141219356169E-15
 21
6.0
 31
0.0
210
0.0
220
0.0
230
1.0
 40
0.766044443118337
 41
0.0
 42
6.283185307179586
  0
LINE
  5
70B
330
1F
100
AcDbEntity
  8
LAY-1
  6
CONTINUOUS
 62
     3
100
AcDbLine
 10
352.2235397336973
 20
411.6956622349411
 30
0.0
 11
345.4126640902333
 21
408.8564502032343
 31
0.0
  0
LINE
  5
70C
330
1F
100
AcDbEntity
  8
LAY-1
  6
CONTINUOUS
 62
     3
100
AcDbLine
 10
354.0485298760364
 20
422.2914359114764
 30
0.0
 11
352.2235883662751
 21
411.6955865759915
 31
0.0
  0
LINE
  5
70D
330
1F
100
AcDbEntity
  8
LAY-1
  6
CONTINUOUS
 62
     3
100
AcDbLine
 10
351.343315438011
 20
426.5000000000001
 30
0.0
 11
354.0485021510308
 21
422.2913927785876
 31
0.0
  0
LINE
  5
70E
330
1F
100
AcDbEntity
  8
LAY-1
  6
CONTINUOUS
 62
     3
100
AcDbLine
 10
352.22360616687
 20
411.6956899285702
 30
0.0
 11
347.377809361394
 21
411.6956899285702
 31
0.0
  0
LINE
  5
70F
330
1F
100
AcDbEntity
  8
LAY-1
  6
CONTINUOUS
 62
     3
100
AcDbLine
 10
354.04851815809
 20
422.2913678755301
 30
0.0
 11
349.19592278997
 21
422.2913678755301
 31
0.0
  0
LINE
  5
710
330
1F
100
AcDbEntity
  8
LAY-1
  6
CONTINUOUS
 62
     3
100
AcDbLine
 10
280.2777875042601
 20
405.5000000000001
 30
0.0
 11
325.31076242214
 21
405.5000000000001
 31
0.0
  0
LINE
  5
711
330
1F
100
AcDbEntity
  8
LAY-1
  6
CONTINUOUS
 62
     3
100
AcDbLine
 10
283.7
 20
405.5000000000001
 30
0.0
 11
246.1522486178202
 21
405.5000000000001
 31
0.0
  0
ELLIPSE
  5
712
330
1F
100
AcDbEntity
  8
LAY-1
  6
CONTINUOUS
 62
     3
100
AcDbEllipse
 10
246.1522486178202
 20
419.5000000000001
 30
0.0
 11
-5.359996178497728E-15
 21
14.0
 31
0.0
210
0.0
220
0.0
230
1.0
 40
0.7648581692328582
 41
1.888872946972266
 42
3.141592653589793
  0
ARC
  5
713
330
1F
100
AcDbEntity
  8
LAY-1
  6
CONTINUOUS
 62
     3
100
AcDbCircle
 10
195.4825820738242
 20
443.5
 30
0.0
 40
57.99999999999999
100
AcDbArc
 50
52.43190540482158
 51
90.00000000000001
  0
ARC
  5
714
330
1F
100
AcDbEntity
  8
LAY-1
  6
CONTINUOUS
 62
     3
100
AcDbCircle
 10
195.4825820738242
 20
443.5
 30
0.0
 40
57.99999999999999
100
AcDbArc
 50
52.43190540482158
 51
90.00000000000001
  0
ARC
  5
715
330
1F
100
AcDbEntity
  8
LAY-1
  6
CONTINUOUS
 62
     3
100
AcDbCircle
 10
195.4825820738242
 20
484.5000000000001
 30
0.0
 40
57.99999999999999
100
AcDbArc
 50
270.0
 51
321.2941787403791
  0
ARC
  5
716
330
1F
100
AcDbEntity
  8
LAY-1
  6
CONTINUOUS
 62
     3
100
AcDbCircle
 10
306.7274288312589
 20
496.5000000000001
 30
0.0
 40
70.0
100
AcDbArc
 50
227.7924572416912
 51
270.0
  0
LINE
  5
717
330
1F
100
AcDbEntity
  8
LAY-1
  6
CONTINUOUS
 62
     3
100
AcDbLine
 10
597.1591835741848
 20
63.34119170081601
 30
0.0
 11
562.9999999999999
 21
63.34119170081601
 31
0.0
  0
ELLIPSE
  5
718
330
1F
100
AcDbEntity
  8
LAY-1
  6
CONTINUOUS
 62
     3
100
AcDbEllipse
 10
607.5
 20
72.309539774146
 30
0.0
 11
14.0
 21
0.0
 31
0.0
210
0.0
220
0.0
230
1.0
 40
0.6405962909521432
 41
5.535101405274364
 42
6.283185307179586
  0
ARC
  5
719
330
1F
100
AcDbEntity
  8
LAY-1
  6
CONTINUOUS
 62
     3
100
AcDbCircle
 10
159.7830157765209
 20
80.78010654221308
 30
0.0
 40
175.0
100
AcDbArc
 50
28.00272506596004
 51
54.13778406764565
  0
ELLIPSE
  5
71A
330
1F
100
AcDbEntity
  8
LAY-1
  6
CONTINUOUS
 62
     1
100
AcDbEllipse
 10
563.0
 20
84.033380679516
 30
0.0
 11
7.652000000000046
 21
0.0
 31
0.0
210
0.0
220
0.0
230
1.0
 40
0.6384371190848112
 41
0.1168176500489819
 42
1.454880882637176
  0
ELLIPSE
  5
71B
330
1F
100
AcDbEntity
  8
LAY-1
  6
CONTINUOUS
 62
     1
100
AcDbEllipse
 10
563.0
 20
84.033380679516
 30
0.0
 11
7.652000000000046
 21
0.0
 31
0.0
210
0.0
220
0.0
230
1.0
 40
0.6384371190848112
 41
1.686711770952603
 42
3.024775003540829
  0
LINE
  5
71C
330
1F
100
AcDbEntity
  8
LAY-1
  6
CONTINUOUS
 62
     1
100
AcDbLine
 10
562.11499999905
 20
88.885917708874
 30
0.0
 11
555.348
 21
77.707893588292
 31
0.0
  0
LINE
  5
71D
330
1F
100
AcDbEntity
  8
LAY-1
  6
CONTINUOUS
 62
     1
100
AcDbLine
 10
555.348
 20
84.569509770551
 30
0.0
 11
562.115
 21
82.024301526686
 31
0.0
  0
LINE
  5
71E
330
1F
100
AcDbEntity
  8
LAY-1
  6
CONTINUOUS
 62
     1
100
AcDbLine
 10
563.885
 20
82.024301526686
 30
0.0
 11
570.652
 21
84.569509770551
 31
0.0
  0
LINE
  5
71F
330
1F
100
AcDbEntity
  8
LAY-1
  6
CONTINUOUS
 62
     1
100
AcDbLine
 10
563.88500000095
 20
88.885917708874
 30
0.0
 11
570.652
 21
77.707893588292
 31
0.0
  0
TEXT
  5
721
330
1F
100
AcDbEntity
  8
LAY-1
  6
CONTINUOUS
 62
     3
100
AcDbText
 10
522.0
 20
495.125
 30
0.0
 40
5.466484268125855
  1
ＳＴＡＩＮＬＥＳＳ　ＳＴＥＥＬ
  7
EXCADTTF1
 72
     5
 11
642.0
 21
495.125
 31
0.0
100
AcDbText
  0
TEXT
  5
722
330
1F
100
AcDbEntity
  8
LAY-1
  6
CONTINUOUS
 62
     3
100
AcDbText
 10
522.0
 20
479.125
 30
0.0
 40
5.466484268125855
  1
Ｙ　ＴＹＰＥ　ＳＴＲＡＩＮＥＲ
  7
EXCADTTF1
 72
     5
 11
642.0
 21
479.125
 31
0.0
100
AcDbText
  0
TEXT
  5
723
330
1F
100
AcDbEntity
  8
LAY-1
  6
CONTINUOUS
 62
     3
100
AcDbText
 10
522.0
 20
463.125
 30
0.0
 40
5.466484268125855
  1
１０ＦＹＬ－１４Ａ
  7
EXCADTTF1
 72
     5
 11
594.0
 21
463.125
 31
0.0
100
AcDbText
  0
TEXT
  5
724
330
1F
100
AcDbEntity
  8
LAY-1
  6
CONTINUOUS
 62
     3
100
AcDbText
 10
522.0
 20
447.125
 30
0.0
 40
5.466484268125855
  1
１０Ｋ－６５Ａ
  7
EXCADTTF1
 72
     5
 11
578.0
 21
447.125
 31
0.0
100
AcDbText
  0
ENDSEC
  0
SECTION
  2
OBJECTS
  0
DICTIONARY
  5
C
330
0
100
AcDbDictionary
  3
ACAD_GROUP
350
D
  3
ACAD_LAYOUT
350
1A
  3
ACAD_MATERIAL
350
43
  3
ACAD_MLEADERSTYLE
350
6B
  3
ACAD_MLINESTYLE
350
17
  3
ACAD_PLOTSETTINGS
350
19
  3
ACAD_SCALELIST
350
47
  3
ACAD_VISUALSTYLE
350
2A
  3
ACDBHEADERROUNDTRIPXREC
350
725
  3
ACDBVARIABLEDICTIONARY
350
746
  0
DICTIONARY
  5
74F
330
8
100
AcDbDictionary
280
     1
  3
ACAD_XREC_ROUNDTRIP
360
750
  0
DICTIONARY
  5
D
102
{ACAD_REACTORS
330
C
102
}
330
C
100
AcDbDictionary
  0
DICTIONARY
  5
1A
102
{ACAD_REACTORS
330
C
102
}
330
C
100
AcDbDictionary
  0
DICTIONARY
  5
43
102
{ACAD_REACTORS
330
C
102
}
330
C
100
AcDbDictionary
  3
BYBLOCK
350
45
  3
BYLAYER
350
44
  3
GLOBAL
350
46
  0
DICTIONARY
  5
6B
102
{ACAD_REACTORS
330
C
102
}
330
C
100
AcDbDictionary
  3
STANDARD
350
6C
  0
DICTIONARY
  5
17
102
{ACAD_REACTORS
330
C
102
}
330
C
100
AcDbDictionary
  3
STANDARD
350
18
  0
DICTIONARY
  5
19
102
{ACAD_REACTORS
330
C
102
}
330
C
100
AcDbDictionary
  0
DICTIONARY
  5
47
102
{ACAD_REACTORS
330
C
102
}
330
C
100
AcDbDictionary
  3
A0
350
48
  3
A1
350
49
  3
A2
350
4A
  3
A3
350
4B
  3
A4
350
4C
  3
A5
350
4D
  3
A6
350
4E
  3
A7
350
4F
  3
A8
350
50
  3
A9
350
51
  3
B0
350
52
  3
B1
350
53
  3
B2
350
54
  3
B3
350
55
  3
B4
350
56
  3
B5
350
57
  3
B6
350
58
  3
B7
350
59
  3
B8
350
5A
  3
B9
350
5B
  3
C0
350
5C
  3
C1
350
5D
  3
C2
350
5E
  3
C3
350
5F
  3
C4
350
60
  3
C5
350
61
  3
C6
350
62
  3
C7
350
63
  3
C8
350
64
  3
C9
350
65
  3
D0
350
66
  3
D1
350
67
  3
D2
350
68
  0
DICTIONARY
  5
2A
102
{ACAD_REACTORS
330
C
102
}
330
C
100
AcDbDictionary
  3
2DWIREFRAME
350
2F
  3
BASIC
350
32
  3
BRIGHTEN
350
36
  3
COLORCHANGE
350
3A
  3
CONCEPTUAL
350
34
  3
DIM
350
35
  3
EDGECOLOROFF
350
3D
  3
FACEPATTERN
350
39
  3
FLAT
350
2B
  3
FLATWITHEDGES
350
2C
  3
GOURAUD
350
2D
  3
GOURAUDWITHEDGES
350
2E
  3
HIDDEN
350
31
  3
JITTEROFF
350
3B
  3
LINEPATTERN
350
38
  3
OVERHANGOFF
350
3C
  3
REALISTIC
350
33
  3
SHADED
350
42
  3
SHADED_WITH_EDGES
350
41
  3
SHADES_OF_GRAY
350
3E
  3
SKETCHY
350
3F
  3
THICKEN
350
37
  3
WIREFRAME
350
30
  3
X-RAY
350
40
  0
DICTIONARY
  5
725
102
{ACAD_REACTORS
330
C
102
}
330
C
100
AcDbDictionary
  3
CEPSNID
350
72F
  3
CEPSNTYPE
350
72E
  3
DIMSTYLEDATA
350
745
  3
FINGERPRINTGUID
350
730
  3
HYPERLINKBASE
350
728
  3
INSUNITS
350
72D
  3
LAYOUTDICT
350
72A
  3
LWETCUNION
350
72C
  3
PLOTSETDICT
350
72B
  3
PSVPSCALE
350
732
  3
PUCSBASE
350
735
  3
PUCSORGBACK
350
73B
  3
PUCSORGBOTTOM
350
737
  3
PUCSORGFRONT
350
73A
  3
PUCSORGLEFT
350
738
  3
PUCSORGRIGHT
350
739
  3
PUCSORGTOP
350
736
  3
PUCSORTHOREF
350
733
  3
PUCSORTHOVIEW
350
734
  3
STYLESHEET
350
729
  3
TSTACKALIGN
350
726
  3
TSTACKSIZE
350
727
  3
UCSBASE
350
73E
  3
UCSORGBACK
350
744
  3
UCSORGBOTTOM
350
740
  3
UCSORGFRONT
350
743
  3
UCSORGLEFT
350
741
  3
UCSORGRIGHT
350
742
  3
UCSORGTOP
350
73F
  3
UCSORTHOREF
350
73C
  3
UCSORTHOVIEW
350
73D
  3
VERSIONGUID
350
731
  0
DICTIONARY
  5
746
102
{ACAD_REACTORS
330
C
102
}
330
C
100
AcDbDictionary
  3
CANNOSCALE
350
751
  3
CMLEADERSTYLE
350
748
  3
CTABLESTYLE
350
747
  3
DIMASSOC
350
74D
  3
HIDETEXT
350
74E
  3
MSLTSCALE
350
752
  3
PSOLHEIGHT
350
74A
  3
PSOLWIDTH
350
749
  0
XRECORD
  5
750
102
{ACAD_REACTORS
330
74F
102
}
330
74F
100
AcDbXrecord
102
VTR_0.000_0.000_1.000_1.000_VISUALSTYLE
340
2F
102
VTR_0.000_0.000_1.000_1.000_GRIDDISPLAY
 70
     3
102
VTR_0.000_0.000_1.000_1.000_GRIDMAJOR
 70
     5
102
VTR_0.000_0.000_1.000_1.000_DEFAULTLIGHTING
280
     1
102
VTR_0.000_0.000_1.000_1.000_DEFAULTLIGHTINGTYPE
 70
     1
102
VTR_0.000_0.000_1.000_1.000_BRIGHTNESS
141
0.0
102
VTR_0.000_0.000_1.000_1.000_CONTRAST
142
0.0
  0
MATERIAL
  5
45
102
{ACAD_REACTORS
330
43
102
}
102
{ACAD_XDICTIONARY
360
755
102
}
330
43
100
AcDbMaterial
  1
BYBLOCK
  0
MATERIAL
  5
44
102
{ACAD_REACTORS
330
43
102
}
102
{ACAD_XDICTIONARY
360
753
102
}
330
43
100
AcDbMaterial
  1
BYLAYER
  0
MATERIAL
  5
46
102
{ACAD_REACTORS
330
43
102
}
102
{ACAD_XDICTIONARY
360
757
102
}
330
43
100
AcDbMaterial
  1
GLOBAL
  0
ACAD_PROXY_OBJECT
  5
6C
102
{ACAD_REACTORS
330
6B
102
}
330
6B
100
AcDbProxyObject
 90
      499
 91
      505
 93
      610
310
40901902A4063FBFFFFFE0000000000000020400000000000020404214DD185B99185C990000000000000104090141901A00000000000004100000000000000041025764000000000000039000
340
14
340
0
340
11
340
0
 94
        0
1001
ACAD_MLEADERVER
1070
     2
  0
MLINESTYLE
  5
18
102
{ACAD_REACTORS
330
17
102
}
330
17
100
AcDbMlineStyle
  2
Standard
 70
     0
  3

 62
   256
 51
90.0
 52
90.0
 71
     2
 49
0.5
 62
   256
  6
BYLAYER
 49
-0.5
 62
   256
  6
BYLAYER
  0
ACAD_PROXY_OBJECT
  5
48
102
{ACAD_REACTORS
330
47
102
}
330
47
100
AcDbProxyObject
 90
      499
 91
      503
 93
       41
310
903313A31580
  0
ACAD_PROXY_OBJECT
  5
49
102
{ACAD_REACTORS
330
47
102
}
330
47
100
AcDbProxyObject
 90
      499
 91
      503
 93
      105
310
903313A324000000000000004000
  0
ACAD_PROXY_OBJECT
  5
4A
102
{ACAD_REACTORS
330
47
102
}
330
47
100
AcDbProxyObject
 90
      499
 91
      503
 93
      105
310
903313A344000000000000104000
  0
ACAD_PROXY_OBJECT
  5
4B
102
{ACAD_REACTORS
330
47
102
}
330
47
100
AcDbProxyObject
 90
      499
 91
      503
 93
      105
310
903313A354000000000000144000
  0
ACAD_PROXY_OBJECT
  5
4C
102
{ACAD_REACTORS
330
47
102
}
330
47
100
AcDbProxyObject
 90
      499
 91
      503
 93
      105
310
903313A384000000000000204000
  0
ACAD_PROXY_OBJECT
  5
4D
102
{ACAD_REACTORS
330
47
102
}
330
47
100
AcDbProxyObject
 90
      499
 91
      503
 93
      113
310
904313A31304000000000000244000
  0
ACAD_PROXY_OBJECT
  5
4E
102
{ACAD_REACTORS
330
47
102
}
330
47
100
AcDbProxyObject
 90
      499
 91
      503
 93
      113
310
904313A31364000000000000304000
  0
ACAD_PROXY_OBJECT
  5
4F
102
{ACAD_REACTORS
330
47
102
}
330
47
100
AcDbProxyObject
 90
      499
 91
      503
 93
      113
310
904313A32304000000000000344000
  0
ACAD_PROXY_OBJECT
  5
50
102
{ACAD_REACTORS
330
47
102
}
330
47
100
AcDbProxyObject
 90
      499
 91
      503
 93
      113
310
904313A333040000000000003E4000
  0
ACAD_PROXY_OBJECT
  5
51
102
{ACAD_REACTORS
330
47
102
}
330
47
100
AcDbProxyObject
 90
      499
 91
      503
 93
      113
310
904313A34304000000000000444000
  0
ACAD_PROXY_OBJECT
  5
52
102
{ACAD_REACTORS
330
47
102
}
330
47
100
AcDbProxyObject
 90
      499
 91
      503
 93
      113
310
904313A35304000000000000494000
  0
ACAD_PROXY_OBJECT
  5
53
102
{ACAD_REACTORS
330
47
102
}
330
47
100
AcDbProxyObject
 90
      499
 91
      503
 93
      121
310
905313A3130304000000000000594000
  0
ACAD_PROXY_OBJECT
  5
54
102
{ACAD_REACTORS
330
47
102
}
330
47
100
AcDbProxyObject
 90
      499
 91
      503
 93
      105
310
903323A310000000000000010100
  0
ACAD_PROXY_OBJECT
  5
55
102
{ACAD_REACTORS
330
47
102
}
330
47
100
AcDbProxyObject
 90
      499
 91
      503
 93
      105
310
903343A310000000000000410100
  0
ACAD_PROXY_OBJECT
  5
56
102
{ACAD_REACTORS
330
47
102
}
330
47
100
AcDbProxyObject
 90
      499
 91
      503
 93
      105
310
903383A310000000000000810100
  0
ACAD_PROXY_OBJECT
  5
57
102
{ACAD_REACTORS
330
47
102
}
330
47
100
AcDbProxyObject
 90
      499
 91
      503
 93
      113
310
90431303A310000000000000910100
  0
ACAD_PROXY_OBJECT
  5
58
102
{ACAD_REACTORS
330
47
102
}
330
47
100
AcDbProxyObject
 90
      499
 91
      503
 93
      121
310
9053130303A310000000000001650100
  0
ACAD_PROXY_OBJECT
  5
59
102
{ACAD_REACTORS
330
47
102
}
330
47
100
AcDbProxyObject
 90
      499
 91
      503
 93
      257
310
90E312F31323822203D2031272D3022000000000000200FC000000000000284000
  0
ACAD_PROXY_OBJECT
  5
5A
102
{ACAD_REACTORS
330
47
102
}
330
47
100
AcDbProxyObject
 90
      499
 91
      503
 93
      249
310
90D312F363422203D2031272D3022000000000000240FC000000000000284000
  0
ACAD_PROXY_OBJECT
  5
5B
102
{ACAD_REACTORS
330
47
102
}
330
47
100
AcDbProxyObject
 90
      499
 91
      503
 93
      249
310
90D312F333222203D2031272D3022000000000000280FC000000000000284000
  0
ACAD_PROXY_OBJECT
  5
5C
102
{ACAD_REACTORS
330
47
102
}
330
47
100
AcDbProxyObject
 90
      499
 91
      503
 93
      249
310
90D312F313622203D2031272D30220000000000002C0FC000000000000284000
  0
ACAD_PROXY_OBJECT
  5
5D
102
{ACAD_REACTORS
330
47
102
}
330
47
100
AcDbProxyObject
 90
      499
 91
      503
 93
      249
310
90D332F333222203D2031272D30220000000000002E0FC000000000000284000
  0
ACAD_PROXY_OBJECT
  5
5E
102
{ACAD_REACTORS
330
47
102
}
330
47
100
AcDbProxyObject
 90
      499
 91
      503
 93
      241
310
90C312F3822203D2031272D3022000000000000300FC000000000000284000
  0
ACAD_PROXY_OBJECT
  5
5F
102
{ACAD_REACTORS
330
47
102
}
330
47
100
AcDbProxyObject
 90
      499
 91
      503
 93
      249
310
90D332F313622203D2031272D3022000000000000320FC000000000000284000
  0
ACAD_PROXY_OBJECT
  5
60
102
{ACAD_REACTORS
330
47
102
}
330
47
100
AcDbProxyObject
 90
      499
 91
      503
 93
      241
310
90C312F3422203D2031272D3022000000000000340FC000000000000284000
  0
ACAD_PROXY_OBJECT
  5
61
102
{ACAD_REACTORS
330
47
102
}
330
47
100
AcDbProxyObject
 90
      499
 91
      503
 93
      241
310
90C332F3822203D2031272D3022000000000000360FC000000000000284000
  0
ACAD_PROXY_OBJECT
  5
62
102
{ACAD_REACTORS
330
47
102
}
330
47
100
AcDbProxyObject
 90
      499
 91
      503
 93
      241
310
90C312F3222203D2031272D3022000000000000380FC000000000000284000
  0
ACAD_PROXY_OBJECT
  5
63
102
{ACAD_REACTORS
330
47
102
}
330
47
100
AcDbProxyObject
 90
      499
 91
      503
 93
      241
310
90C332F3422203D2031272D30220000000000003A0FC000000000000284000
  0
ACAD_PROXY_OBJECT
  5
64
102
{ACAD_REACTORS
330
47
102
}
330
47
100
AcDbProxyObject
 90
      499
 91
      503
 93
      161
310
90A3122203D2031272D30224000000000000284000
  0
ACAD_PROXY_OBJECT
  5
65
102
{ACAD_REACTORS
330
47
102
}
330
47
100
AcDbProxyObject
 90
      499
 91
      503
 93
      257
310
90E312D312F3222203D2031272D30220000000000003E0FC000000000000284000
  0
ACAD_PROXY_OBJECT
  5
66
102
{ACAD_REACTORS
330
47
102
}
330
47
100
AcDbProxyObject
 90
      499
 91
      503
 93
      225
310
90A3322203D2031272D302200000000000002100000000000000284000
  0
ACAD_PROXY_OBJECT
  5
67
102
{ACAD_REACTORS
330
47
102
}
330
47
100
AcDbProxyObject
 90
      499
 91
      503
 93
      225
310
90A3622203D2031272D302200000000000006100000000000000284000
  0
ACAD_PROXY_OBJECT
  5
68
102
{ACAD_REACTORS
330
47
102
}
330
47
100
AcDbProxyObject
 90
      499
 91
      503
 93
      249
310
90D31272D3022203D2031272D30220000000000000A100000000000000284000
  0
ACAD_PROXY_OBJECT
  5
2F
102
{ACAD_REACTORS
330
2A
102
}
330
2A
100
AcDbProxyObject
 90
      499
 91
      501
 93
      436
310
42CC9915DA5C99599C985B595049028333333333333E33F0000000000000F90107901411070040501600405405064090741402480A0340
1001
ACAD
1000
AcDbSavedByObjectVersion
1070
     0
  0
ACAD_PROXY_OBJECT
  5
32
102
{ACAD_REACTORS
330
2A
102
}
330
2A
100
AcDbProxyObject
 90
      499
 91
      501
 93
      388
310
4150985CDA58D07406404333333333333E33F0000000000000F90107A41107004050150841D405064090741402480A0350
1001
ACAD
1000
AcDbSavedByObjectVersion
1070
     0
  0
ACAD_PROXY_OBJECT
  5
36
102
{ACAD_REACTORS
330
2A
102
}
330
2A
100
AcDbProxyObject
 90
      499
 91
      501
 93
      428
310
42109C9A59DA1D195B90C409028333333333333E33F0000000000000F9010790141107004050150841D405064090741402480A029950
1001
ACAD
1000
AcDbSavedByObjectVersion
1070
     0
  0
ACAD_PROXY_OBJECT
  5
3A
102
{ACAD_REACTORS
330
2A
102
}
330
2A
100
AcDbProxyObject
 90
      499
 91
      501
 93
      452
310
42D0DBDB1BDC90DA185B99D95104090240C333333333333E33F0000000000000F90108901411070040501508421405064090741402480A0350
1001
ACAD
1000
AcDbSavedByObjectVersion
1070
     0
  0
ACAD_PROXY_OBJECT
  5
34
102
{ACAD_REACTORS
330
2A
102
}
330
2A
100
AcDbProxyObject
 90
      499
 91
      501
 93
      500
310
4290DBDB98D95C1D1D585B10940D028333333333333E33F0000000000000F90107902409070040501000000000018199010841D405064090740C02480A0340
1001
ACAD
1000
AcDbSavedByObjectVersion
1070
     0
  0
ACAD_PROXY_OBJECT
  5
35
102
{ACAD_REACTORS
330
2A
102
}
330
2A
100
AcDbProxyObject
 90
      499
 91
      501
 93
      412
310
40D11A5B50B409028333333333333E33F0000000000000F9010790141107004050150841D405064090741402480A02677FFFFFD0
1001
ACAD
1000
AcDbSavedByObjectVersion
1070
     0
  0
ACAD_PROXY_OBJECT
  5
3D
102
{ACAD_REACTORS
330
2A
102
}
330
2A
100
AcDbProxyObject
 90
      499
 91
      501
 93
      452
310
43115919D950DBDB1BDC93D999916409028333333333333E33F0000000000000F9010790141107004050150841D405064090741402480A0350
1001
ACAD
1000
AcDbSavedByObjectVersion
1070
     0
  0
ACAD_PROXY_OBJECT
  5
39
102
{ACAD_REACTORS
330
2A
102
}
330
2A
100
AcDbProxyObject
 90
      499
 91
      501
 93
      444
310
42D19858D95C185D1D195C9B90F409028333333333333E33F0000000000000F9010790141107004050150841D405064090741402480A0350
1001
ACAD
1000
AcDbSavedByObjectVersion
1070
     0
  0
ACAD_PROXY_OBJECT
  5
2B
102
{ACAD_REACTORS
330
2A
102
}
330
2A
100
AcDbProxyObject
 90
      499
 91
      501
 93
      380
310
41119B185D240901404333333333333E33F0000000000000F9010740A907004050150841D405064090741402480A1B50
1001
ACAD
1000
AcDbSavedByObjectVersion
1070
     0
  0
ACAD_PROXY_OBJECT
  5
2C
102
{ACAD_REACTORS
330
2A
102
}
330
2A
100
AcDbProxyObject
 90
      499
 91
      501
 93
      468
310
43519B185D15DA5D1A115919D95CD0140901404333333333333E33F0000000000000F90107409019070040501600405405064090741402480A1B50
1001
ACAD
1000
AcDbSavedByObjectVersion
1070
     0
  0
ACAD_PROXY_OBJECT
  5
2D
102
{ACAD_REACTORS
330
2A
102
}
330
2A
100
AcDbProxyObject
 90
      499
 91
      501
 93
      404
310
41D1DBDD5C985D5910240902404333333333333E33F0000000000000F9010740A9070040501641D405064090741402480A1B50
1001
ACAD
1000
AcDbSavedByObjectVersion
1070
     0
  0
ACAD_PROXY_OBJECT
  5
2E
102
{ACAD_REACTORS
330
2A
102
}
330
2A
100
AcDbProxyObject
 90
      499
 91
      501
 93
      492
310
4411DBDD5C985D5915DA5D1A115919D95CD0340902404333333333333E33F0000000000000F90107409019070040501600405405064090741402480A1B50
1001
ACAD
1000
AcDbSavedByObjectVersion
1070
     0
  0
ACAD_PROXY_OBJECT
  5
31
102
{ACAD_REACTORS
330
2A
102
}
330
2A
100
AcDbProxyObject
 90
      499
 91
      501
 93
      476
310
41921A5919195B90640502408333333333333E33F0000000000000F901079024090700405020000000000001110200405405064090740C02480A0340
1001
ACAD
1000
AcDbSavedByObjectVersion
1070
     0
  0
ACAD_PROXY_OBJECT
  5
3B
102
{ACAD_REACTORS
330
2A
102
}
330
2A
100
AcDbProxyObject
 90
      499
 91
      501
 93
      428
310
42529A5D1D195C93D999914409028333333333333E33F0000000000000F9010790141107004050150A41D405064090741402480A0350
1001
ACAD
1000
AcDbSavedByObjectVersion
1070
     0
  0
ACAD_PROXY_OBJECT
  5
38
102
{ACAD_REACTORS
330
2A
102
}
330
2A
100
AcDbProxyObject
 90
      499
 91
      501
 93
      444
310
42D31A5B995C185D1D195C9B90E409028333333333333E33F0000000000000F9010790141107004050750841D405064090741402483A0350
1001
ACAD
1000
AcDbSavedByObjectVersion
1070
     0
  0
ACAD_PROXY_OBJECT
  5
3C
102
{ACAD_REACTORS
330
2A
102
}
330
2A
100
AcDbProxyObject
 90
      499
 91
      501
 93
      444
310
42D3DD995C9A185B99D3D999915409028333333333333E33F0000000000000F9010790141107004050150941D405064090741402480A0350
1001
ACAD
1000
AcDbSavedByObjectVersion
1070
     0
  0
ACAD_PROXY_OBJECT
  5
33
102
{ACAD_REACTORS
330
2A
102
}
330
2A
100
AcDbProxyObject
 90
      499
 91
      501
 93
      428
310
425499585B1A5CDD1A58D08409038333333333333E33F0000000000000F9010740A907004050150800405405064090740C02480A1B40
1001
ACAD
1000
AcDbSavedByObjectVersion
1070
     0
  0
ACAD_PROXY_OBJECT
  5
42
102
{ACAD_REACTORS
330
2A
102
}
330
2A
100
AcDbProxyObject
 90
      499
 91
      501
 93
      420
310
4194DA1859195911B40902404333333333333E33F0000000000000F9010740A41107004050150800405405064090840C02480A0B40
1001
ACAD
1000
AcDbSavedByObjectVersion
1070
     0
  0
ACAD_PROXY_OBJECT
  5
41
102
{ACAD_REACTORS
330
2A
102
}
330
2A
100
AcDbProxyObject
 90
      499
 91
      501
 93
      516
310
4454DA18591959081DDA5D1A08195919D95CD1A40902404333333333333E33F0000000000000F901074090142907004050250800405405064090740C02480A0B40
1001
ACAD
1000
AcDbSavedByObjectVersion
1070
     0
  0
ACAD_PROXY_OBJECT
  5
3E
102
{ACAD_REACTORS
330
2A
102
}
330
2A
100
AcDbProxyObject
 90
      499
 91
      501
 93
      532
310
4394DA1859195CC81BD98811DC985E5174090240C333333333333E33F0000000000000F901079024090741D01000000000000111010841D405064090740C02480A0340
1001
ACAD
1000
AcDbSavedByObjectVersion
1070
     0
  0
ACAD_PROXY_OBJECT
  5
3F
102
{ACAD_REACTORS
330
2A
102
}
330
2A
100
AcDbProxyObject
 90
      499
 91
      501
 93
      476
310
41D4DAD95D18DA1E51840502408333333333333E33F0000000000000F901079024090741D01000000000000111010B41D405064090741802480A0340
1001
ACAD
1000
AcDbSavedByObjectVersion
1070
     0
  0
ACAD_PROXY_OBJECT
  5
37
102
{ACAD_REACTORS
330
2A
102
}
330
2A
100
AcDbProxyObject
 90
      499
 91
      501
 93
      412
310
41D51A1A58DAD95B90D409028333333333333E33F0000000000000F9010790141107004050150C41D405064090741402480A0350
1001
ACAD
1000
AcDbSavedByObjectVersion
1070
     0
  0
ACAD_PROXY_OBJECT
  5
30
102
{ACAD_REACTORS
330
2A
102
}
330
2A
100
AcDbProxyObject
 90
      499
 91
      501
 93
      420
310
4255DA5C99599C985B595059028333333333333E33F0000000000000F90107901411070040501600405405064090740C02480A0340
1001
ACAD
1000
AcDbSavedByObjectVersion
1070
     0
  0
ACAD_PROXY_OBJECT
  5
40
102
{ACAD_REACTORS
330
2A
102
}
330
2A
100
AcDbProxyObject
 90
      499
 91
      501
 93
      404
310
41560B54985E51940902404000000000000E03F0000000000000F9010740501907004050150841D405064090740C02480A1B40
1001
ACAD
1000
AcDbSavedByObjectVersion
1070
     0
  0
XRECORD
  5
72F
102
{ACAD_REACTORS
330
725
102
}
330
725
100
AcDbXrecord
340
0
  0
XRECORD
  5
72E
102
{ACAD_REACTORS
330
725
102
}
330
725
100
AcDbXrecord
 90
        0
  0
XRECORD
  5
745
102
{ACAD_REACTORS
330
725
102
}
330
725
100
AcDbXrecord
1000
DSTYLE
1002
{
1070
   340
340
11
1002
}
  0
XRECORD
  5
730
102
{ACAD_REACTORS
330
725
102
}
330
725
100
AcDbXrecord
  1
{34BBCC14-C3A9-442B-8130-01DEFB0B21FD}
  0
XRECORD
  5
728
102
{ACAD_REACTORS
330
725
102
}
330
725
100
AcDbXrecord
  1

  0
XRECORD
  5
72D
102
{ACAD_REACTORS
330
725
102
}
330
725
100
AcDbXrecord
 90
        4
  0
XRECORD
  5
72A
102
{ACAD_REACTORS
330
725
102
}
330
725
100
AcDbXrecord
340
1A
  0
XRECORD
  5
72C
102
{ACAD_REACTORS
330
725
102
}
330
725
100
AcDbXrecord
 90
    10781
  0
XRECORD
  5
72B
102
{ACAD_REACTORS
330
725
102
}
330
725
100
AcDbXrecord
340
19
  0
XRECORD
  5
732
102
{ACAD_REACTORS
330
725
102
}
330
725
100
AcDbXrecord
 40
0.0
  0
XRECORD
  5
735
102
{ACAD_REACTORS
330
725
102
}
330
725
100
AcDbXrecord
340
0
  0
XRECORD
  5
73B
102
{ACAD_REACTORS
330
725
102
}
330
725
100
AcDbXrecord
 10
0.0
 20
0.0
 30
0.0
  0
XRECORD
  5
737
102
{ACAD_REACTORS
330
725
102
}
330
725
100
AcDbXrecord
 10
0.0
 20
0.0
 30
0.0
  0
XRECORD
  5
73A
102
{ACAD_REACTORS
330
725
102
}
330
725
100
AcDbXrecord
 10
0.0
 20
0.0
 30
0.0
  0
XRECORD
  5
738
102
{ACAD_REACTORS
330
725
102
}
330
725
100
AcDbXrecord
 10
0.0
 20
0.0
 30
0.0
  0
XRECORD
  5
739
102
{ACAD_REACTORS
330
725
102
}
330
725
100
AcDbXrecord
 10
0.0
 20
0.0
 30
0.0
  0
XRECORD
  5
736
102
{ACAD_REACTORS
330
725
102
}
330
725
100
AcDbXrecord
 10
0.0
 20
0.0
 30
0.0
  0
XRECORD
  5
733
102
{ACAD_REACTORS
330
725
102
}
330
725
100
AcDbXrecord
340
0
  0
XRECORD
  5
734
102
{ACAD_REACTORS
330
725
102
}
330
725
100
AcDbXrecord
 70
     0
  0
XRECORD
  5
729
102
{ACAD_REACTORS
330
725
102
}
330
725
100
AcDbXrecord
  1

  0
XRECORD
  5
726
102
{ACAD_REACTORS
330
725
102
}
330
725
100
AcDbXrecord
 90
        1
  0
XRECORD
  5
727
102
{ACAD_REACTORS
330
725
102
}
330
725
100
AcDbXrecord
 90
       70
  0
XRECORD
  5
73E
102
{ACAD_REACTORS
330
725
102
}
330
725
100
AcDbXrecord
340
0
  0
XRECORD
  5
744
102
{ACAD_REACTORS
330
725
102
}
330
725
100
AcDbXrecord
 10
0.0
 20
0.0
 30
0.0
  0
XRECORD
  5
740
102
{ACAD_REACTORS
330
725
102
}
330
725
100
AcDbXrecord
 10
0.0
 20
0.0
 30
0.0
  0
XRECORD
  5
743
102
{ACAD_REACTORS
330
725
102
}
330
725
100
AcDbXrecord
 10
0.0
 20
0.0
 30
0.0
  0
XRECORD
  5
741
102
{ACAD_REACTORS
330
725
102
}
330
725
100
AcDbXrecord
 10
0.0
 20
0.0
 30
0.0
  0
XRECORD
  5
742
102
{ACAD_REACTORS
330
725
102
}
330
725
100
AcDbXrecord
 10
0.0
 20
0.0
 30
0.0
  0
XRECORD
  5
73F
102
{ACAD_REACTORS
330
725
102
}
330
725
100
AcDbXrecord
 10
0.0
 20
0.0
 30
0.0
  0
XRECORD
  5
73C
102
{ACAD_REACTORS
330
725
102
}
330
725
100
AcDbXrecord
340
0
  0
XRECORD
  5
73D
102
{ACAD_REACTORS
330
725
102
}
330
725
100
AcDbXrecord
 70
     0
  0
XRECORD
  5
731
102
{ACAD_REACTORS
330
725
102
}
330
725
100
AcDbXrecord
  1
{FAEB1C32-E019-11D5-929B-00C0DF256EC4}
  0
DICTIONARYVAR
  5
751
102
{ACAD_REACTORS
330
746
102
}
330
746
100
DictionaryVariables
280
     0
  1
1:1
  0
DICTIONARYVAR
  5
748
102
{ACAD_REACTORS
330
746
102
}
330
746
100
DictionaryVariables
280
     0
  1
Standard
  0
DICTIONARYVAR
  5
747
102
{ACAD_REACTORS
330
746
102
}
330
746
100
DictionaryVariables
280
     0
  1
Standard
  0
DICTIONARYVAR
  5
74D
102
{ACAD_REACTORS
330
746
102
}
330
746
100
DictionaryVariables
280
     0
  1
2
  0
DICTIONARYVAR
  5
74E
102
{ACAD_REACTORS
330
746
102
}
330
746
100
DictionaryVariables
280
     0
  1
1
  0
DICTIONARYVAR
  5
752
102
{ACAD_REACTORS
330
746
102
}
330
746
100
DictionaryVariables
280
     0
  1
1
  0
DICTIONARYVAR
  5
74A
102
{ACAD_REACTORS
330
746
102
}
330
746
100
DictionaryVariables
280
     0
  1
80.000000
  0
DICTIONARYVAR
  5
749
102
{ACAD_REACTORS
330
746
102
}
330
746
100
DictionaryVariables
280
     0
  1
5.000000
  0
DICTIONARY
  5
755
330
45
100
AcDbDictionary
280
     1
  3
ACAD_XREC_ROUNDTRIP
360
756
  0
DICTIONARY
  5
753
330
44
100
AcDbDictionary
280
     1
  3
ACAD_XREC_ROUNDTRIP
360
754
  0
DICTIONARY
  5
757
330
46
100
AcDbDictionary
280
     1
  3
ACAD_XREC_ROUNDTRIP
360
758
  0
XRECORD
  5
756
102
{ACAD_REACTORS
330
755
102
}
330
755
100
AcDbXrecord
102
MATERIAL
148
0.0
149
0.0
149
0.0
 93
        0
 94
      127
282
     0
 72
     1
 77
     1
171
     1
175
     1
179
     1
273
     0
  0
XRECORD
  5
754
102
{ACAD_REACTORS
330
753
102
}
330
753
100
AcDbXrecord
102
MATERIAL
148
0.0
149
0.0
149
0.0
 93
        0
 94
      127
282
     0
 72
     1
 77
     1
171
     1
175
     1
179
     1
273
     0
  0
XRECORD
  5
758
102
{ACAD_REACTORS
330
757
102
}
330
757
100
AcDbXrecord
102
MATERIAL
148
0.0
149
0.0
149
0.0
 93
        0
 94
      127
282
     0
 72
     1
 77
     1
171
     1
175
     1
179
     1
273
     0
  0
ENDSEC
  0
EOF
