  0
SECTION
  2
HEADER
  9
$ACADVER
  1
AC1014
  9
$ACADMAINTVER
 70
     9
  9
$DWGCODEPAGE
  3
ANSI_932
  9
$INSBASE
 10
0.0
 20
0.0
 30
0.0
  9
$EXTMIN
 10
115.0
 20
72.0
 30
0.0
  9
$EXTMAX
 10
690.0
 20
533.0
 30
0.0
  9
$LIMMIN
 10
0.0
 20
0.0
  9
$LIMMAX
 10
841.0
 20
594.0
  9
$ORTHOMODE
 70
     0
  9
$REGENMODE
 70
     1
  9
$FILLMODE
 70
     1
  9
$QTEXTMODE
 70
     0
  9
$MIRRTEXT
 70
     1
  9
$DRAGMODE
 70
     2
  9
$LTSCALE
 40
1.0
  9
$OSMODE
 70
    37
  9
$ATTMODE
 70
     1
  9
$TEXTSIZE
 40
2.5
  9
$TRACEWID
 40
1.0
  9
$TEXTSTYLE
  7
STANDARD
  9
$CLAYER
  8
LAY-1
  9
$CELTYPE
  6
BYLAYER
  9
$CECOLOR
 62
   256
  9
$CELTSCALE
 40
1.0
  9
$DELOBJ
 70
     1
  9
$DISPSILH
 70
     0
  9
$DIMSCALE
 40
1.0
  9
$DIMASZ
 40
2.5
  9
$DIMEXO
 40
0.625
  9
$DIMDLI
 40
3.75
  9
$DIMRND
 40
0.0
  9
$DIMDLE
 40
0.0
  9
$DIMEXE
 40
1.25
  9
$DIMTP
 40
0.0
  9
$DIMTM
 40
0.0
  9
$DIMTXT
 40
2.5
  9
$DIMCEN
 40
2.5
  9
$DIMTSZ
 40
0.0
  9
$DIMTOL
 70
     0
  9
$DIMLIM
 70
     0
  9
$DIMTIH
 70
     0
  9
$DIMTOH
 70
     0
  9
$DIMSE1
 70
     0
  9
$DIMSE2
 70
     0
  9
$DIMTAD
 70
     1
  9
$DIMZIN
 70
     8
  9
$DIMBLK
  1

  9
$DIMASO
 70
     1
  9
$DIMSHO
 70
     1
  9
$DIMPOST
  1

  9
$DIMAPOST
  1

  9
$DIMALT
 70
     0
  9
$DIMALTD
 70
     3
  9
$DIMALTF
 40
0.03937007874016
  9
$DIMLFAC
 40
1.0
  9
$DIMTOFL
 70
     1
  9
$DIMTVP
 40
0.0
  9
$DIMTIX
 70
     0
  9
$DIMSOXD
 70
     0
  9
$DIMSAH
 70
     0
  9
$DIMBLK1
  1

  9
$DIMBLK2
  1

  9
$DIMSTYLE
  2
ISO-25
  9
$DIMCLRD
 70
     0
  9
$DIMCLRE
 70
     0
  9
$DIMCLRT
 70
     0
  9
$DIMTFAC
 40
1.0
  9
$DIMGAP
 40
0.625
  9
$DIMJUST
 70
     0
  9
$DIMSD1
 70
     0
  9
$DIMSD2
 70
     0
  9
$DIMTOLJ
 70
     0
  9
$DIMTZIN
 70
     8
  9
$DIMALTZ
 70
     0
  9
$DIMALTTZ
 70
     0
  9
$DIMFIT
 70
     3
  9
$DIMUPT
 70
     0
  9
$DIMUNIT
 70
     2
  9
$DIMDEC
 70
     2
  9
$DIMTDEC
 70
     2
  9
$DIMALTU
 70
     2
  9
$DIMALTTD
 70
     3
  9
$DIMTXSTY
  7
STANDARD
  9
$DIMAUNIT
 70
     0
  9
$LUNITS
 70
     2
  9
$LUPREC
 70
     4
  9
$SKETCHINC
 40
1.0
  9
$FILLETRAD
 40
10.0
  9
$AUNITS
 70
     0
  9
$AUPREC
 70
     0
  9
$MENU
  1
.
  9
$ELEVATION
 40
0.0
  9
$PELEVATION
 40
0.0
  9
$THICKNESS
 40
0.0
  9
$LIMCHECK
 70
     0
  9
$CHAMFERA
 40
0.0
  9
$CHAMFERB
 40
0.0
  9
$CHAMFERC
 40
0.0
  9
$CHAMFERD
 40
0.0
  9
$SKPOLY
 70
     0
  9
$TDCREATE
 40
2458306.679997234
  9
$TDUPDATE
 40
2458306.679997234
  9
$TDINDWG
 40
0.0000000116
  9
$TDUSRTIMER
 40
0.0000000116
  9
$USRTIMER
 70
     1
  9
$ANGBASE
 50
0.0
  9
$ANGDIR
 70
     0
  9
$PDMODE
 70
     0
  9
$PDSIZE
 40
0.0
  9
$PLINEWID
 40
0.0
  9
$COORDS
 70
     1
  9
$SPLFRAME
 70
     0
  9
$SPLINETYPE
 70
     6
  9
$SPLINESEGS
 70
     8
  9
$ATTDIA
 70
     0
  9
$ATTREQ
 70
     1
  9
$HANDLING
 70
     1
  9
$HANDSEED
  5
324
  9
$SURFTAB1
 70
     6
  9
$SURFTAB2
 70
     6
  9
$SURFTYPE
 70
     6
  9
$SURFU
 70
     6
  9
$SURFV
 70
     6
  9
$UCSNAME
  2

  9
$UCSORG
 10
0.0
 20
0.0
 30
0.0
  9
$UCSXDIR
 10
1.0
 20
0.0
 30
0.0
  9
$UCSYDIR
 10
0.0
 20
1.0
 30
0.0
  9
$PUCSNAME
  2

  9
$PUCSORG
 10
0.0
 20
0.0
 30
0.0
  9
$PUCSXDIR
 10
1.0
 20
0.0
 30
0.0
  9
$PUCSYDIR
 10
0.0
 20
1.0
 30
0.0
  9
$USERI1
 70
     0
  9
$USERI2
 70
     0
  9
$USERI3
 70
     0
  9
$USERI4
 70
     0
  9
$USERI5
 70
     0
  9
$USERR1
 40
0.0
  9
$USERR2
 40
0.0
  9
$USERR3
 40
0.0
  9
$USERR4
 40
0.0
  9
$USERR5
 40
0.0
  9
$WORLDVIEW
 70
     1
  9
$SHADEDGE
 70
     3
  9
$SHADEDIF
 70
    70
  9
$TILEMODE
 70
     1
  9
$MAXACTVP
 70
    64
  9
$PINSBASE
 10
0.0
 20
0.0
 30
0.0
  9
$PLIMCHECK
 70
     0
  9
$PEXTMIN
 10
1.000000000000000E+20
 20
1.000000000000000E+20
 30
1.000000000000000E+20
  9
$PEXTMAX
 10
-1.000000000000000E+20
 20
-1.000000000000000E+20
 30
-1.000000000000000E+20
  9
$PLIMMIN
 10
0.0
 20
0.0
  9
$PLIMMAX
 10
420.0
 20
297.0
  9
$UNITMODE
 70
     0
  9
$VISRETAIN
 70
     1
  9
$PLINEGEN
 70
     0
  9
$PSLTSCALE
 70
     1
  9
$TREEDEPTH
 70
  3020
  9
$PICKSTYLE
 70
     1
  9
$CMLSTYLE
  2
STANDARD
  9
$CMLJUST
 70
     0
  9
$CMLSCALE
 40
20.0
  9
$PROXYGRAPHICS
 70
     1
  9
$MEASUREMENT
 70
     1
  0
ENDSEC
  0
SECTION
  2
CLASSES
  0
CLASS
  1
ACDBDICTIONARYWDFLT
  2
AcDbDictionaryWithDefault
  3
ObjectDBX Classes
 90
        0
280
     0
281
     0
  0
CLASS
  1
VISUALSTYLE
  2
AcDbVisualStyle
  3
ObjectDBX Classes
 90
     4095
280
     0
281
     0
  0
CLASS
  1
MATERIAL
  2
AcDbMaterial
  3
ObjectDBX Classes
 90
     1153
280
     0
281
     0
  0
CLASS
  1
SCALE
  2
AcDbScale
  3
ObjectDBX Classes
 90
     1153
280
     0
281
     0
  0
CLASS
  1
TABLESTYLE
  2
AcDbTableStyle
  3
ObjectDBX Classes
 90
     4095
280
     0
281
     0
  0
CLASS
  1
MLEADERSTYLE
  2
AcDbMLeaderStyle
  3
ACDB_MLEADERSTYLE_CLASS
 90
     4095
280
     0
281
     0
  0
CLASS
  1
SUN
  2
AcDbSun
  3
SCENEOE
 90
     1153
280
     0
281
     0
  0
CLASS
  1
DICTIONARYVAR
  2
AcDbDictionaryVar
  3
ObjectDBX Classes
 90
        0
280
     0
281
     0
  0
CLASS
  1
XRECORD
  2
AcDbXrecord
  3
ObjectDBX Classes
 90
        0
280
     0
281
     0
  0
CLASS
  1
LWPOLYLINE
  2
AcDbPolyline
  3
ObjectDBX Classes
 90
        0
280
     0
281
     1
  0
CLASS
  1
HATCH
  2
AcDbHatch
  3
ObjectDBX Classes
 90
        0
280
     0
281
     1
  0
CLASS
  1
ACDBPLACEHOLDER
  2
AcDbPlaceHolder
  3
ObjectDBX Classes
 90
        0
280
     0
281
     0
  0
CLASS
  1
LAYOUT
  2
AcDbLayout
  3
ObjectDBX Classes
 90
        0
280
     0
281
     0
  0
ENDSEC
  0
SECTION
  2
TABLES
  0
TABLE
  2
VPORT
  5
8
102
{ACAD_XDICTIONARY
360
319
102
}
330
0
100
AcDbSymbolTable
 70
     1
  0
VPORT
  5
29
330
8
100
AcDbSymbolTableRecord
100
AcDbViewportTableRecord
  2
*ACTIVE
 70
     0
 10
0.0
 20
0.0
 11
1.0
 21
1.0
 12
402.5
 22
302.5
 13
0.0
 23
0.0
 14
10.0
 24
10.0
 15
10.0
 25
10.0
 16
0.0
 26
0.0
 36
1.0
 17
0.0
 27
0.0
 37
0.0
 40
461.0
 41
1.247288503253796
 42
50.0
 43
0.0
 44
0.0
 50
0.0
 51
0.0
 71
     0
 72
  1000
 73
     1
 74
     3
 75
     0
 76
     0
 77
     0
 78
     0
  0
ENDTAB
  0
TABLE
  2
LTYPE
  5
5
330
0
100
AcDbSymbolTable
 70
    13
  0
LTYPE
  5
14
330
5
100
AcDbSymbolTableRecord
100
AcDbLinetypeTableRecord
  2
BYBLOCK
 70
     0
  3

 72
    65
 73
     0
 40
0.0
  0
LTYPE
  5
15
330
5
100
AcDbSymbolTableRecord
100
AcDbLinetypeTableRecord
  2
BYLAYER
 70
     0
  3

 72
    65
 73
     0
 40
0.0
  0
LTYPE
  5
16
330
5
100
AcDbSymbolTableRecord
100
AcDbLinetypeTableRecord
  2
CONTINUOUS
 70
     0
  3
Solid line
 72
    65
 73
     0
 40
0.0
  0
LTYPE
  5
6E
330
5
100
AcDbSymbolTableRecord
100
AcDbLinetypeTableRecord
  2
EXLTYPE0
 70
     0
  3
破線
 72
    65
 73
     2
 40
1.9
 49
1.5
 74
     0
 49
-0.4
 74
     0
  0
LTYPE
  5
6F
330
5
100
AcDbSymbolTableRecord
100
AcDbLinetypeTableRecord
  2
EXLTYPE1
 70
     0
  3
破線2
 72
    65
 73
     2
 40
1.0
 49
0.5
 74
     0
 49
-0.5
 74
     0
  0
LTYPE
  5
70
330
5
100
AcDbSymbolTableRecord
100
AcDbLinetypeTableRecord
  2
EXLTYPE2
 70
     0
  3
一点鎖線
 72
    65
 73
     4
 40
6.5
 49
5.0
 74
     0
 49
-0.5
 74
     0
 49
0.5
 74
     0
 49
-0.5
 74
     0
  0
LTYPE
  5
71
330
5
100
AcDbSymbolTableRecord
100
AcDbLinetypeTableRecord
  2
EXLTYPE3
 70
     0
  3
二点鎖線
 72
    65
 73
     6
 40
7.5
 49
5.0
 74
     0
 49
-0.5
 74
     0
 49
0.5
 74
     0
 49
-0.5
 74
     0
 49
0.5
 74
     0
 49
-0.5
 74
     0
  0
LTYPE
  5
72
330
5
100
AcDbSymbolTableRecord
100
AcDbLinetypeTableRecord
  2
EXLTYPE4
 70
     0
  3
三点鎖線
 72
    65
 73
     8
 40
18.5
 49
15.0
 74
     0
 49
-0.5
 74
     0
 49
0.5
 74
     0
 49
-0.5
 74
     0
 49
0.5
 74
     0
 49
-0.5
 74
     0
 49
0.5
 74
     0
 49
-0.5
 74
     0
  0
LTYPE
  5
73
330
5
100
AcDbSymbolTableRecord
100
AcDbLinetypeTableRecord
  2
EXLTYPE5
 70
     0
  3
四点鎖線
 72
    65
 73
    10
 40
19.5
 49
15.0
 74
     0
 49
-0.5
 74
     0
 49
0.5
 74
     0
 49
-0.5
 74
     0
 49
0.5
 74
     0
 49
-0.5
 74
     0
 49
0.5
 74
     0
 49
-0.5
 74
     0
 49
0.5
 74
     0
 49
-0.5
 74
     0
  0
LTYPE
  5
74
330
5
100
AcDbSymbolTableRecord
100
AcDbLinetypeTableRecord
  2
EXLTYPE6
 70
     0
  3
一点鎖線2
 72
    65
 73
     4
 40
3.55
 49
2.5
 74
     0
 49
-0.35
 74
     0
 49
0.35
 74
     0
 49
-0.35
 74
     0
  0
LTYPE
  5
75
330
5
100
AcDbSymbolTableRecord
100
AcDbLinetypeTableRecord
  2
EXLTYPE7
 70
     0
  3
二点鎖線2
 72
    65
 73
     6
 40
2.25
 49
1.0
 74
     0
 49
-0.25
 74
     0
 49
0.25
 74
     0
 49
-0.25
 74
     0
 49
0.25
 74
     0
 49
-0.25
 74
     0
  0
LTYPE
  5
76
330
5
100
AcDbSymbolTableRecord
100
AcDbLinetypeTableRecord
  2
EXLTYPE8
 70
     0
  3
二点鎖線3
 72
    65
 73
     6
 40
3.75
 49
2.5
 74
     0
 49
-0.25
 74
     0
 49
0.25
 74
     0
 49
-0.25
 74
     0
 49
0.25
 74
     0
 49
-0.25
 74
     0
  0
LTYPE
  5
77
330
5
100
AcDbSymbolTableRecord
100
AcDbLinetypeTableRecord
  2
EXLTYPE9
 70
     0
  3
二点鎖線4
 72
    65
 73
     6
 40
2.25
 49
1.0
 74
     0
 49
-0.25
 74
     0
 49
0.25
 74
     0
 49
-0.25
 74
     0
 49
0.25
 74
     0
 49
-0.25
 74
     0
  0
LTYPE
  5
78
330
5
100
AcDbSymbolTableRecord
100
AcDbLinetypeTableRecord
  2
EXLTYPE10
 70
     0
  3
二点鎖線5
 72
    65
 73
     6
 40
3.75
 49
2.5
 74
     0
 49
-0.25
 74
     0
 49
0.25
 74
     0
 49
-0.25
 74
     0
 49
0.25
 74
     0
 49
-0.25
 74
     0
  0
LTYPE
  5
79
330
5
100
AcDbSymbolTableRecord
100
AcDbLinetypeTableRecord
  2
EXLTYPE11
 70
     0
  3
破線3
 72
    65
 73
     2
 40
0.5
 49
0.25
 74
     0
 49
-0.25
 74
     0
  0
ENDTAB
  0
TABLE
  2
LAYER
  5
2
330
0
100
AcDbSymbolTable
 70
     2
  0
LAYER
  5
10
330
2
100
AcDbSymbolTableRecord
100
AcDbLayerTableRecord
  2
0
 70
     0
 62
     7
  6
CONTINUOUS
  0
LAYER
  5
7C
330
2
100
AcDbSymbolTableRecord
100
AcDbLayerTableRecord
  2
LAY-1
 70
     0
 62
     7
  6
CONTINUOUS
  0
ENDTAB
  0
TABLE
  2
STYLE
  5
3
330
0
100
AcDbSymbolTable
 70
     4
  0
STYLE
  5
11
330
3
100
AcDbSymbolTableRecord
100
AcDbTextStyleTableRecord
  2
STANDARD
 70
     0
 40
0.0
 41
1.0
 50
0.0
 71
     0
 42
2.5
  3
monotxt
  4
extfont
  0
STYLE
  5
7A
330
3
100
AcDbSymbolTableRecord
100
AcDbTextStyleTableRecord
  2
EXCADSTD
 70
     0
 40
0.0
 41
1.0
 50
0.0
 71
     0
 42
2.5
  3
monotxt
  4
extfont
  0
STYLE
  5
7B
330
3
100
AcDbSymbolTableRecord
100
AcDbTextStyleTableRecord
  2
EXCADVERT
 70
     4
 40
0.0
 41
1.0
 50
0.0
 71
     0
 42
2.5
  3
monotxt
  4
extfont
  0
STYLE
  5
2E6
330
3
100
AcDbSymbolTableRecord
100
AcDbTextStyleTableRecord
  2
EXCADTTF1
 70
     0
 40
0.0
 41
1.0
 50
0.0
 71
     0
 42
2.5
  3
msmincho.ttc
  4

1001
ACAD
1000
MS Mincho
1071
    32785
  0
ENDTAB
  0
TABLE
  2
VIEW
  5
6
330
0
100
AcDbSymbolTable
 70
     0
  0
ENDTAB
  0
TABLE
  2
UCS
  5
7
330
0
100
AcDbSymbolTable
 70
     0
  0
ENDTAB
  0
TABLE
  2
APPID
  5
9
330
0
100
AcDbSymbolTable
 70
     2
  0
APPID
  5
12
330
9
100
AcDbSymbolTableRecord
100
AcDbRegAppTableRecord
  2
ACAD
 70
     0
  0
APPID
  5
323
330
9
100
AcDbSymbolTableRecord
100
AcDbRegAppTableRecord
  2
ACAD_MLEADERVER
 70
     0
  0
ENDTAB
  0
TABLE
  2
DIMSTYLE
  5
A
330
0
100
AcDbSymbolTable
 70
     1
  0
DIMSTYLE
105
27
330
A
100
AcDbSymbolTableRecord
100
AcDbDimStyleTableRecord
  2
ISO-25
 70
     0
  3

  4

  5

  6

  7

 40
1.0
 41
2.5
 42
0.625
 43
3.75
 44
1.25
 45
0.0
 46
0.0
 47
0.0
 48
0.0
140
2.5
141
2.5
142
0.0
143
0.03937007874016
144
1.0
145
0.0
146
1.0
147
0.625
 71
     0
 72
     0
 73
     0
 74
     0
 75
     0
 76
     0
 77
     1
 78
     8
170
     0
171
     3
172
     1
173
     0
174
     0
175
     0
176
     0
177
     0
178
     0
270
     2
271
     2
272
     2
273
     2
274
     3
340
11
275
     0
280
     0
281
     0
282
     0
283
     0
284
     8
285
     0
286
     0
287
     5
288
     0
  0
ENDTAB
  0
TABLE
  2
BLOCK_RECORD
  5
1
330
0
100
AcDbSymbolTable
 70
    15
  0
BLOCK_RECORD
  5
1F
330
1
100
AcDbSymbolTableRecord
100
AcDbBlockTableRecord
  2
*MODEL_SPACE
  0
BLOCK_RECORD
  5
1B
330
1
100
AcDbSymbolTableRecord
100
AcDbBlockTableRecord
  2
*PAPER_SPACE
  0
BLOCK_RECORD
  5
7D
330
1
100
AcDbSymbolTableRecord
100
AcDbBlockTableRecord
  2
EX_NORM
  0
BLOCK_RECORD
  5
80
330
1
100
AcDbSymbolTableRecord
100
AcDbBlockTableRecord
  2
EX_BNORM
  0
BLOCK_RECORD
  5
83
330
1
100
AcDbSymbolTableRecord
100
AcDbBlockTableRecord
  2
EX_BCIR
  0
BLOCK_RECORD
  5
86
330
1
100
AcDbSymbolTableRecord
100
AcDbBlockTableRecord
  2
EX_RCIVIL
  0
BLOCK_RECORD
  5
89
330
1
100
AcDbSymbolTableRecord
100
AcDbBlockTableRecord
  2
EX_SLANT
  0
BLOCK_RECORD
  5
8C
330
1
100
AcDbSymbolTableRecord
100
AcDbBlockTableRecord
  2
EX_NONE
  0
BLOCK_RECORD
  5
8F
330
1
100
AcDbSymbolTableRecord
100
AcDbBlockTableRecord
  2
EX_CIVIL
  0
BLOCK_RECORD
  5
92
330
1
100
AcDbSymbolTableRecord
100
AcDbBlockTableRecord
  2
EX_WCIR
  0
BLOCK_RECORD
  5
95
330
1
100
AcDbSymbolTableRecord
100
AcDbBlockTableRecord
  2
EX_WCIR2
  0
BLOCK_RECORD
  5
98
330
1
100
AcDbSymbolTableRecord
100
AcDbBlockTableRecord
  2
EX_WNORM
  0
BLOCK_RECORD
  5
9B
330
1
100
AcDbSymbolTableRecord
100
AcDbBlockTableRecord
  2
EX_NNORM
  0
BLOCK_RECORD
  5
9E
330
1
100
AcDbSymbolTableRecord
100
AcDbBlockTableRecord
  2
EX_BBOX
  0
BLOCK_RECORD
  5
A1
330
1
100
AcDbSymbolTableRecord
100
AcDbBlockTableRecord
  2
EX_WBOX
  0
BLOCK_RECORD
  5
A4
330
1
100
AcDbSymbolTableRecord
100
AcDbBlockTableRecord
  2
EX_INTEGRAL
  0
ENDTAB
  0
ENDSEC
  0
SECTION
  2
BLOCKS
  0
BLOCK
  5
20
330
1F
100
AcDbEntity
  8
0
100
AcDbBlockBegin
  2
*MODEL_SPACE
 70
     0
 10
0.0
 20
0.0
 30
0.0
  3
*MODEL_SPACE
  1

  0
ENDBLK
  5
21
330
1F
100
AcDbEntity
  8
0
100
AcDbBlockEnd
  0
BLOCK
  5
1C
330
1B
100
AcDbEntity
 67
     1
  8
0
100
AcDbBlockBegin
  2
*PAPER_SPACE
 70
     0
 10
0.0
 20
0.0
 30
0.0
  3
*PAPER_SPACE
  1

  0
ENDBLK
  5
1D
330
1B
100
AcDbEntity
 67
     1
  8
0
100
AcDbBlockEnd
  0
BLOCK
  5
7E
330
7D
100
AcDbEntity
  8
0
100
AcDbBlockBegin
  2
EX_NORM
 70
     0
 10
0.0
 20
0.0
 30
0.0
  3
EX_NORM
  1

  0
LINE
  5
A7
330
7D
100
AcDbEntity
  8
0
  6
CONTINUOUS
 62
     0
100
AcDbLine
 10
0.0
 20
0.0
 30
0.0
 11
-1.0
 21
0.0
 31
0.0
  0
LINE
  5
A8
330
7D
100
AcDbEntity
  8
0
  6
CONTINUOUS
 62
     0
100
AcDbLine
 10
0.0
 20
0.0
 30
0.0
 11
-1.0
 21
0.166666667
 31
0.0
  0
LINE
  5
A9
330
7D
100
AcDbEntity
  8
0
  6
CONTINUOUS
 62
     0
100
AcDbLine
 10
0.0
 20
0.0
 30
0.0
 11
-1.0
 21
-0.166666667
 31
0.0
  0
ENDBLK
  5
7F
330
7D
100
AcDbEntity
  8
0
100
AcDbBlockEnd
  0
BLOCK
  5
81
330
80
100
AcDbEntity
  8
0
100
AcDbBlockBegin
  2
EX_BNORM
 70
     0
 10
0.0
 20
0.0
 30
0.0
  3
EX_BNORM
  1

  0
LINE
  5
AA
330
80
100
AcDbEntity
  8
0
  6
CONTINUOUS
 62
     0
100
AcDbLine
 10
0.0
 20
0.0
 30
0.0
 11
-1.0
 21
0.0
 31
0.0
  0
LINE
  5
AB
330
80
100
AcDbEntity
  8
0
  6
CONTINUOUS
 62
     0
100
AcDbLine
 10
0.0
 20
0.0
 30
0.0
 11
-1.0
 21
0.166666667
 31
0.0
  0
LINE
  5
AC
330
80
100
AcDbEntity
  8
0
  6
CONTINUOUS
 62
     0
100
AcDbLine
 10
0.0
 20
0.0
 30
0.0
 11
-1.0
 21
-0.166666667
 31
0.0
  0
LINE
  5
AD
330
80
100
AcDbEntity
  8
0
  6
CONTINUOUS
 62
     0
100
AcDbLine
 10
0.0
 20
0.0
 30
0.0
 11
-1.0
 21
0.083333333
 31
0.0
  0
LINE
  5
AE
330
80
100
AcDbEntity
  8
0
  6
CONTINUOUS
 62
     0
100
AcDbLine
 10
0.0
 20
0.0
 30
0.0
 11
-1.0
 21
-0.083333333
 31
0.0
  0
LINE
  5
AF
330
80
100
AcDbEntity
  8
0
  6
CONTINUOUS
 62
     0
100
AcDbLine
 10
-1.0
 20
0.166666667
 30
0.0
 11
-1.0
 21
-0.166666667
 31
0.0
  0
ENDBLK
  5
82
330
80
100
AcDbEntity
  8
0
100
AcDbBlockEnd
  0
BLOCK
  5
84
330
83
100
AcDbEntity
  8
0
100
AcDbBlockBegin
  2
EX_BCIR
 70
     0
 10
0.0
 20
0.0
 30
0.0
  3
EX_BCIR
  1

  0
LINE
  5
B0
330
83
100
AcDbEntity
  8
0
  6
CONTINUOUS
 62
     0
100
AcDbLine
 10
0.0
 20
0.0
 30
0.0
 11
-1.0
 21
0.0
 31
0.0
  0
CIRCLE
  5
B1
330
83
100
AcDbEntity
  8
0
  6
CONTINUOUS
 62
     0
100
AcDbCircle
 10
0.0
 20
0.0
 30
0.0
 40
0.5
  0
CIRCLE
  5
B2
330
83
100
AcDbEntity
  8
0
  6
CONTINUOUS
 62
     0
100
AcDbCircle
 10
0.0
 20
0.0
 30
0.0
 40
0.25
  0
ENDBLK
  5
85
330
83
100
AcDbEntity
  8
0
100
AcDbBlockEnd
  0
BLOCK
  5
87
330
86
100
AcDbEntity
  8
0
100
AcDbBlockBegin
  2
EX_RCIVIL
 70
     0
 10
0.0
 20
0.0
 30
0.0
  3
EX_RCIVIL
  1

  0
LINE
  5
B3
330
86
100
AcDbEntity
  8
0
  6
CONTINUOUS
 62
     0
100
AcDbLine
 10
0.0
 20
0.0
 30
0.0
 11
-1.0
 21
0.0
 31
0.0
  0
LINE
  5
B4
330
86
100
AcDbEntity
  8
0
  6
CONTINUOUS
 62
     0
100
AcDbLine
 10
-1.0
 20
-0.25
 30
0.0
 11
0.0
 21
-0.25
 31
0.0
  0
LINE
  5
B5
330
86
100
AcDbEntity
  8
0
  6
CONTINUOUS
 62
     0
100
AcDbLine
 10
-1.0
 20
-0.125
 30
0.0
 11
0.0
 21
-0.125
 31
0.0
  0
ENDBLK
  5
88
330
86
100
AcDbEntity
  8
0
100
AcDbBlockEnd
  0
BLOCK
  5
8A
330
89
100
AcDbEntity
  8
0
100
AcDbBlockBegin
  2
EX_SLANT
 70
     0
 10
0.0
 20
0.0
 30
0.0
  3
EX_SLANT
  1

  0
LINE
  5
B6
330
89
100
AcDbEntity
  8
0
  6
CONTINUOUS
 62
     0
100
AcDbLine
 10
0.0
 20
0.0
 30
0.0
 11
-1.0
 21
0.0
 31
0.0
  0
LINE
  5
B7
330
89
100
AcDbEntity
  8
0
  6
CONTINUOUS
 62
     0
100
AcDbLine
 10
0.707106781
 20
0.707106781
 30
0.0
 11
-0.707106781
 21
-0.707106781
 31
0.0
  0
ENDBLK
  5
8B
330
89
100
AcDbEntity
  8
0
100
AcDbBlockEnd
  0
BLOCK
  5
8D
330
8C
100
AcDbEntity
  8
0
100
AcDbBlockBegin
  2
EX_NONE
 70
     0
 10
0.0
 20
0.0
 30
0.0
  3
EX_NONE
  1

  0
LINE
  5
B8
330
8C
100
AcDbEntity
  8
0
  6
CONTINUOUS
 62
     0
100
AcDbLine
 10
0.0
 20
0.0
 30
0.0
 11
-1.0
 21
0.0
 31
0.0
  0
ENDBLK
  5
8E
330
8C
100
AcDbEntity
  8
0
100
AcDbBlockEnd
  0
BLOCK
  5
90
330
8F
100
AcDbEntity
  8
0
100
AcDbBlockBegin
  2
EX_CIVIL
 70
     0
 10
0.0
 20
0.0
 30
0.0
  3
EX_CIVIL
  1

  0
LINE
  5
B9
330
8F
100
AcDbEntity
  8
0
  6
CONTINUOUS
 62
     0
100
AcDbLine
 10
0.0
 20
0.0
 30
0.0
 11
-1.0
 21
0.0
 31
0.0
  0
LINE
  5
BA
330
8F
100
AcDbEntity
  8
0
  6
CONTINUOUS
 62
     0
100
AcDbLine
 10
-1.0
 20
0.25
 30
0.0
 11
0.0
 21
0.25
 31
0.0
  0
LINE
  5
BB
330
8F
100
AcDbEntity
  8
0
  6
CONTINUOUS
 62
     0
100
AcDbLine
 10
-1.0
 20
0.125
 30
0.0
 11
0.0
 21
0.125
 31
0.0
  0
ENDBLK
  5
91
330
8F
100
AcDbEntity
  8
0
100
AcDbBlockEnd
  0
BLOCK
  5
93
330
92
100
AcDbEntity
  8
0
100
AcDbBlockBegin
  2
EX_WCIR
 70
     0
 10
0.0
 20
0.0
 30
0.0
  3
EX_WCIR
  1

  0
LINE
  5
BC
330
92
100
AcDbEntity
  8
0
  6
CONTINUOUS
 62
     0
100
AcDbLine
 10
0.0
 20
0.0
 30
0.0
 11
-1.0
 21
0.0
 31
0.0
  0
CIRCLE
  5
BD
330
92
100
AcDbEntity
  8
0
  6
CONTINUOUS
 62
     0
100
AcDbCircle
 10
0.0
 20
0.0
 30
0.0
 40
0.5
  0
ENDBLK
  5
94
330
92
100
AcDbEntity
  8
0
100
AcDbBlockEnd
  0
BLOCK
  5
96
330
95
100
AcDbEntity
  8
0
100
AcDbBlockBegin
  2
EX_WCIR2
 70
     0
 10
0.0
 20
0.0
 30
0.0
  3
EX_WCIR2
  1

  0
LINE
  5
BE
330
95
100
AcDbEntity
  8
0
  6
CONTINUOUS
 62
     0
100
AcDbLine
 10
-0.5
 20
0.0
 30
0.0
 11
-1.0
 21
0.0
 31
0.0
  0
CIRCLE
  5
BF
330
95
100
AcDbEntity
  8
0
  6
CONTINUOUS
 62
     0
100
AcDbCircle
 10
0.0
 20
0.0
 30
0.0
 40
0.5
  0
ENDBLK
  5
97
330
95
100
AcDbEntity
  8
0
100
AcDbBlockEnd
  0
BLOCK
  5
99
330
98
100
AcDbEntity
  8
0
100
AcDbBlockBegin
  2
EX_WNORM
 70
     0
 10
0.0
 20
0.0
 30
0.0
  3
EX_WNORM
  1

  0
LINE
  5
C0
330
98
100
AcDbEntity
  8
0
  6
CONTINUOUS
 62
     0
100
AcDbLine
 10
-1.0
 20
0.0
 30
0.0
 11
-1.0
 21
0.0
 31
0.0
  0
LINE
  5
C1
330
98
100
AcDbEntity
  8
0
  6
CONTINUOUS
 62
     0
100
AcDbLine
 10
0.0
 20
0.0
 30
0.0
 11
-1.0
 21
0.166666667
 31
0.0
  0
LINE
  5
C2
330
98
100
AcDbEntity
  8
0
  6
CONTINUOUS
 62
     0
100
AcDbLine
 10
0.0
 20
0.0
 30
0.0
 11
-1.0
 21
-0.166666667
 31
0.0
  0
LINE
  5
C3
330
98
100
AcDbEntity
  8
0
  6
CONTINUOUS
 62
     0
100
AcDbLine
 10
-1.0
 20
0.166666667
 30
0.0
 11
-1.0
 21
-0.166666667
 31
0.0
  0
ENDBLK
  5
9A
330
98
100
AcDbEntity
  8
0
100
AcDbBlockEnd
  0
BLOCK
  5
9C
330
9B
100
AcDbEntity
  8
0
100
AcDbBlockBegin
  2
EX_NNORM
 70
     0
 10
0.0
 20
0.0
 30
0.0
  3
EX_NNORM
  1

  0
LINE
  5
C4
330
9B
100
AcDbEntity
  8
0
  6
CONTINUOUS
 62
     0
100
AcDbLine
 10
0.0
 20
0.0
 30
0.0
 11
-1.0
 21
0.0
 31
0.0
  0
LINE
  5
C5
330
9B
100
AcDbEntity
  8
0
  6
CONTINUOUS
 62
     0
100
AcDbLine
 10
0.0
 20
0.0
 30
0.0
 11
-1.0
 21
0.166666667
 31
0.0
  0
LINE
  5
C6
330
9B
100
AcDbEntity
  8
0
  6
CONTINUOUS
 62
     0
100
AcDbLine
 10
0.0
 20
0.0
 30
0.0
 11
-1.0
 21
-0.166666667
 31
0.0
  0
LINE
  5
C7
330
9B
100
AcDbEntity
  8
0
  6
CONTINUOUS
 62
     0
100
AcDbLine
 10
-1.0
 20
0.166666667
 30
0.0
 11
-1.0
 21
-0.166666667
 31
0.0
  0
ENDBLK
  5
9D
330
9B
100
AcDbEntity
  8
0
100
AcDbBlockEnd
  0
BLOCK
  5
9F
330
9E
100
AcDbEntity
  8
0
100
AcDbBlockBegin
  2
EX_BBOX
 70
     0
 10
0.0
 20
0.0
 30
0.0
  3
EX_BBOX
  1

  0
LINE
  5
C8
330
9E
100
AcDbEntity
  8
0
  6
CONTINUOUS
 62
     0
100
AcDbLine
 10
0.0
 20
0.0
 30
0.0
 11
-1.0
 21
0.0
 31
0.0
  0
LINE
  5
C9
330
9E
100
AcDbEntity
  8
0
  6
CONTINUOUS
 62
     0
100
AcDbLine
 10
-0.5
 20
0.5
 30
0.0
 11
0.5
 21
0.5
 31
0.0
  0
LINE
  5
CA
330
9E
100
AcDbEntity
  8
0
  6
CONTINUOUS
 62
     0
100
AcDbLine
 10
0.5
 20
0.5
 30
0.0
 11
0.5
 21
-0.5
 31
0.0
  0
LINE
  5
CB
330
9E
100
AcDbEntity
  8
0
  6
CONTINUOUS
 62
     0
100
AcDbLine
 10
0.5
 20
-0.5
 30
0.0
 11
-0.5
 21
-0.5
 31
0.0
  0
LINE
  5
CC
330
9E
100
AcDbEntity
  8
0
  6
CONTINUOUS
 62
     0
100
AcDbLine
 10
-0.5
 20
-0.5
 30
0.0
 11
-0.5
 21
0.5
 31
0.0
  0
LINE
  5
CD
330
9E
100
AcDbEntity
  8
0
  6
CONTINUOUS
 62
     0
100
AcDbLine
 10
-0.25
 20
0.25
 30
0.0
 11
0.25
 21
0.25
 31
0.0
  0
LINE
  5
CE
330
9E
100
AcDbEntity
  8
0
  6
CONTINUOUS
 62
     0
100
AcDbLine
 10
0.25
 20
0.25
 30
0.0
 11
0.25
 21
-0.25
 31
0.0
  0
LINE
  5
CF
330
9E
100
AcDbEntity
  8
0
  6
CONTINUOUS
 62
     0
100
AcDbLine
 10
0.25
 20
-0.25
 30
0.0
 11
-0.25
 21
-0.25
 31
0.0
  0
LINE
  5
D0
330
9E
100
AcDbEntity
  8
0
  6
CONTINUOUS
 62
     0
100
AcDbLine
 10
-0.25
 20
-0.25
 30
0.0
 11
-0.25
 21
0.25
 31
0.0
  0
ENDBLK
  5
A0
330
9E
100
AcDbEntity
  8
0
100
AcDbBlockEnd
  0
BLOCK
  5
A2
330
A1
100
AcDbEntity
  8
0
100
AcDbBlockBegin
  2
EX_WBOX
 70
     0
 10
0.0
 20
0.0
 30
0.0
  3
EX_WBOX
  1

  0
LINE
  5
D1
330
A1
100
AcDbEntity
  8
0
  6
CONTINUOUS
 62
     0
100
AcDbLine
 10
-0.5
 20
0.0
 30
0.0
 11
-1.0
 21
0.0
 31
0.0
  0
LINE
  5
D2
330
A1
100
AcDbEntity
  8
0
  6
CONTINUOUS
 62
     0
100
AcDbLine
 10
-0.5
 20
0.5
 30
0.0
 11
0.5
 21
0.5
 31
0.0
  0
LINE
  5
D3
330
A1
100
AcDbEntity
  8
0
  6
CONTINUOUS
 62
     0
100
AcDbLine
 10
0.5
 20
0.5
 30
0.0
 11
0.5
 21
-0.5
 31
0.0
  0
LINE
  5
D4
330
A1
100
AcDbEntity
  8
0
  6
CONTINUOUS
 62
     0
100
AcDbLine
 10
0.5
 20
-0.5
 30
0.0
 11
-0.5
 21
-0.5
 31
0.0
  0
LINE
  5
D5
330
A1
100
AcDbEntity
  8
0
  6
CONTINUOUS
 62
     0
100
AcDbLine
 10
-0.5
 20
-0.5
 30
0.0
 11
-0.5
 21
0.5
 31
0.0
  0
ENDBLK
  5
A3
330
A1
100
AcDbEntity
  8
0
100
AcDbBlockEnd
  0
BLOCK
  5
A5
330
A4
100
AcDbEntity
  8
0
100
AcDbBlockBegin
  2
EX_INTEGRAL
 70
     0
 10
0.0
 20
0.0
 30
0.0
  3
EX_INTEGRAL
  1

  0
LINE
  5
D6
330
A4
100
AcDbEntity
  8
0
  6
CONTINUOUS
 62
     0
100
AcDbLine
 10
0.0
 20
0.0
 30
0.0
 11
-1.0
 21
0.0
 31
0.0
  0
ARC
  5
D7
330
A4
100
AcDbEntity
  8
0
  6
CONTINUOUS
 62
     0
100
AcDbCircle
 10
0.542115
 20
0.164992
 30
0.0
 40
0.56667
100
AcDbArc
 50
73.07249033629006
 51
196.9275130221199
  0
ARC
  5
D8
330
A4
100
AcDbEntity
  8
0
  6
CONTINUOUS
 62
     0
100
AcDbCircle
 10
-0.542115
 20
-0.164992
 30
0.0
 40
0.56667
100
AcDbArc
 50
253.0724869220464
 51
16.9275130559125
  0
ENDBLK
  5
A6
330
A4
100
AcDbEntity
  8
0
100
AcDbBlockEnd
  0
ENDSEC
  0
SECTION
  2
ENTITIES
  0
LINE
  5
D9
330
1F
100
AcDbEntity
  8
LAY-1
  6
CONTINUOUS
 62
     3
100
AcDbLine
 10
350.9999999999999
 20
224.0000000000002
 30
0.0
 11
166.9999999999999
 21
224.0000000000002
 31
0.0
  0
LINE
  5
DA
330
1F
100
AcDbEntity
  8
LAY-1
  6
CONTINUOUS
 62
     3
100
AcDbLine
 10
350.9999999999999
 20
118.0000000000002
 30
0.0
 11
166.9999999999999
 21
118.0000000000002
 31
0.0
  0
ARC
  5
DB
330
1F
100
AcDbEntity
  8
LAY-1
  6
CONTINUOUS
 62
     3
100
AcDbCircle
 10
352.3579373025053
 20
171.0000000000002
 30
0.0
 40
46.02929903770536
100
AcDbArc
 50
156.9798226212647
 51
203.0201773787354
  0
ARC
  5
DC
330
1F
100
AcDbEntity
  8
LAY-1
  6
CONTINUOUS
 62
     3
100
AcDbCircle
 10
165.6420626974948
 20
171.0000000000004
 30
0.0
 40
46.02929903770536
100
AcDbArc
 50
336.9798226212645
 51
23.02017737873527
  0
ARC
  5
DD
330
1F
100
AcDbEntity
  8
LAY-1
  6
CONTINUOUS
 62
     3
100
AcDbCircle
 10
170.0000000000003
 20
211.0000000000005
 30
0.0
 40
3.0
100
AcDbArc
 50
180.0
 51
270.0
  0
LINE
  5
DE
330
1F
100
AcDbEntity
  8
LAY-1
  6
CONTINUOUS
 62
     3
100
AcDbLine
 10
347.9999999999999
 20
208.0000000000005
 30
0.0
 11
170.0000000000003
 21
208.0000000000005
 31
0.0
  0
ARC
  5
DF
330
1F
100
AcDbEntity
  8
LAY-1
  6
CONTINUOUS
 62
     3
100
AcDbCircle
 10
347.9999999999999
 20
211.0000000000005
 30
0.0
 40
3.0
100
AcDbArc
 50
270.0
 51
0.0
  0
ARC
  5
E0
330
1F
100
AcDbEntity
  8
LAY-1
  6
CONTINUOUS
 62
     3
100
AcDbCircle
 10
347.9999999999999
 20
130.9999999999999
 30
0.0
 40
3.0
100
AcDbArc
 50
0.0
 51
90.00000000000001
  0
LINE
  5
E1
330
1F
100
AcDbEntity
  8
LAY-1
  6
CONTINUOUS
 62
     3
100
AcDbLine
 10
347.9999999999999
 20
133.9999999999999
 30
0.0
 11
170.0000000000001
 21
133.9999999999999
 31
0.0
  0
ARC
  5
E2
330
1F
100
AcDbEntity
  8
LAY-1
  6
CONTINUOUS
 62
     3
100
AcDbCircle
 10
170.0000000000001
 20
130.9999999999999
 30
0.0
 40
3.0
100
AcDbArc
 50
90.00000000000001
 51
180.0
  0
LINE
  5
E3
330
1F
100
AcDbEntity
  8
LAY-1
  6
CONTINUOUS
 62
     3
100
AcDbLine
 10
125.9999999999996
 20
258.5000000000001
 30
0.0
 11
141.9999999999996
 21
258.5000000000001
 31
0.0
  0
LINE
  5
E4
330
1F
100
AcDbEntity
  8
LAY-1
  6
CONTINUOUS
 62
     3
100
AcDbLine
 10
124.0000000000009
 20
229.0000000000002
 30
0.0
 11
125.9999999999996
 21
229.0000000000002
 31
0.0
  0
LINE
  5
E5
330
1F
100
AcDbEntity
  8
LAY-1
  6
CONTINUOUS
 62
     3
100
AcDbLine
 10
149.3900310561997
 20
212.156357989782
 30
0.0
 11
163.9999999999996
 21
209.5000000000002
 31
0.0
  0
ARC
  5
E6
330
1F
100
AcDbEntity
  8
LAY-1
  6
CONTINUOUS
 62
     3
100
AcDbCircle
 10
150.9999999999996
 20
221.0111871806812
 30
0.0
 40
9.0
100
AcDbArc
 50
180.0
 51
259.6951535312335
  0
LINE
  5
E7
330
1F
100
AcDbEntity
  8
LAY-1
  6
CONTINUOUS
 62
     3
100
AcDbLine
 10
149.3900310561997
 20
129.8436420102184
 30
0.0
 11
163.9999999999996
 21
132.5000000000002
 31
0.0
  0
ARC
  5
E8
330
1F
100
AcDbEntity
  8
LAY-1
  6
CONTINUOUS
 62
     3
100
AcDbCircle
 10
150.9999999999996
 20
120.9888128193192
 30
0.0
 40
9.0
100
AcDbArc
 50
100.3048464687664
 51
180.0
  0
LINE
  5
E9
330
1F
100
AcDbEntity
  8
LAY-1
  6
CONTINUOUS
 62
     3
100
AcDbLine
 10
124.0000000000009
 20
229.0000000000002
 30
0.0
 11
124.0000000000009
 21
113.0000000000002
 31
0.0
  0
LINE
  5
EA
330
1F
100
AcDbEntity
  8
LAY-1
  6
CONTINUOUS
 62
     3
100
AcDbLine
 10
125.9999999999996
 20
83.5000000000003
 30
0.0
 11
141.9999999999996
 21
83.5000000000003
 31
0.0
  0
LINE
  5
EB
330
1F
100
AcDbEntity
  8
LAY-1
  6
CONTINUOUS
 62
     3
100
AcDbLine
 10
124.0000000000009
 20
113.0000000000002
 30
0.0
 11
125.9999999999996
 21
113.0000000000002
 31
0.0
  0
LINE
  5
EC
330
1F
100
AcDbEntity
  8
LAY-1
  6
CONTINUOUS
 62
     3
100
AcDbLine
 10
141.9999999999996
 20
120.9888128193202
 30
0.0
 11
141.9999999999996
 21
83.50000000000018
 31
0.0
  0
LINE
  5
ED
330
1F
100
AcDbEntity
  8
LAY-1
  6
EXLTYPE2
 62
     1
100
AcDbLine
 10
119.1
 20
241.0000000000002
 30
0.0
 11
150.6
 21
241.0000000000002
 31
0.0
  0
LINE
  5
EE
330
1F
100
AcDbEntity
  8
LAY-1
  6
EXLTYPE2
 62
     1
100
AcDbLine
 10
119.1
 20
101.0000000000002
 30
0.0
 11
150.6
 21
101.0000000000002
 31
0.0
  0
LINE
  5
EF
330
1F
100
AcDbEntity
  8
LAY-1
  6
CONTINUOUS
 62
     3
100
AcDbLine
 10
141.9999999999996
 20
120.9888128193192
 30
0.0
 11
141.9999999999996
 21
258.5000000000001
 31
0.0
  0
LINE
  5
F0
330
1F
100
AcDbEntity
  8
LAY-1
  6
CONTINUOUS
 62
     3
100
AcDbLine
 10
125.9999999999995
 20
83.50000000000018
 30
0.0
 11
125.9999999999995
 21
258.5000000000001
 31
0.0
  0
LINE
  5
F1
330
1F
100
AcDbEntity
  8
LAY-1
  6
CONTINUOUS
 62
     3
100
AcDbLine
 10
392.0000000000006
 20
258.4999999999999
 30
0.0
 11
376.0000000000006
 21
258.4999999999999
 31
0.0
  0
LINE
  5
F2
330
1F
100
AcDbEntity
  8
LAY-1
  6
CONTINUOUS
 62
     3
100
AcDbLine
 10
393.9999999999993
 20
229.0
 30
0.0
 11
392.0000000000006
 21
229.0
 31
0.0
  0
LINE
  5
F3
330
1F
100
AcDbEntity
  8
LAY-1
  6
CONTINUOUS
 62
     3
100
AcDbLine
 10
368.6099689438005
 20
212.1563579897818
 30
0.0
 11
354.0000000000006
 21
209.5
 31
0.0
  0
ARC
  5
F4
330
1F
100
AcDbEntity
  8
LAY-1
  6
CONTINUOUS
 62
     3
100
AcDbCircle
 10
367.0000000000006
 20
221.0111871806809
 30
0.0
 40
9.0
100
AcDbArc
 50
280.3048464687666
 51
0.0
  0
LINE
  5
F5
330
1F
100
AcDbEntity
  8
LAY-1
  6
CONTINUOUS
 62
     3
100
AcDbLine
 10
368.6099689438003
 20
129.8436420102182
 30
0.0
 11
354.0000000000003
 21
132.4999999999999
 31
0.0
  0
ARC
  5
F6
330
1F
100
AcDbEntity
  8
LAY-1
  6
CONTINUOUS
 62
     3
100
AcDbCircle
 10
367.0000000000003
 20
120.988812819319
 30
0.0
 40
9.0
100
AcDbArc
 50
0.0
 51
79.69515353123361
  0
LINE
  5
F7
330
1F
100
AcDbEntity
  8
LAY-1
  6
CONTINUOUS
 62
     3
100
AcDbLine
 10
393.9999999999993
 20
229.0
 30
0.0
 11
393.9999999999991
 21
112.9999999999999
 31
0.0
  0
LINE
  5
F8
330
1F
100
AcDbEntity
  8
LAY-1
  6
CONTINUOUS
 62
     3
100
AcDbLine
 10
392.0000000000002
 20
83.50000000000007
 30
0.0
 11
376.0000000000002
 21
83.50000000000007
 31
0.0
  0
LINE
  5
F9
330
1F
100
AcDbEntity
  8
LAY-1
  6
CONTINUOUS
 62
     3
100
AcDbLine
 10
393.9999999999991
 20
112.9999999999999
 30
0.0
 11
392.0000000000003
 21
112.9999999999999
 31
0.0
  0
LINE
  5
FA
330
1F
100
AcDbEntity
  8
LAY-1
  6
CONTINUOUS
 62
     3
100
AcDbLine
 10
376.0000000000003
 20
120.98881281932
 30
0.0
 11
376.0000000000002
 21
83.49999999999996
 31
0.0
  0
LINE
  5
FB
330
1F
100
AcDbEntity
  8
LAY-1
  6
EXLTYPE2
 62
     1
100
AcDbLine
 10
398.9000000000002
 20
241.0
 30
0.0
 11
367.4000000000002
 21
241.0
 31
0.0
  0
LINE
  5
FC
330
1F
100
AcDbEntity
  8
LAY-1
  6
EXLTYPE2
 62
     1
100
AcDbLine
 10
398.9
 20
101.0
 30
0.0
 11
367.4
 21
101.0
 31
0.0
  0
LINE
  5
FD
330
1F
100
AcDbEntity
  8
LAY-1
  6
CONTINUOUS
 62
     3
100
AcDbLine
 10
376.0000000000003
 20
120.988812819319
 30
0.0
 11
376.0000000000006
 21
258.4999999999999
 31
0.0
  0
LINE
  5
FE
330
1F
100
AcDbEntity
  8
LAY-1
  6
CONTINUOUS
 62
     3
100
AcDbLine
 10
392.0000000000003
 20
83.49999999999996
 30
0.0
 11
392.0000000000008
 21
258.4999999999999
 31
0.0
  0
LINE
  5
FF
330
1F
100
AcDbEntity
  8
LAY-1
  6
CONTINUOUS
 62
     3
100
AcDbLine
 10
350.9999999999999
 20
211.0
 30
0.0
 11
350.9999999999999
 21
224.0
 31
0.0
  0
LINE
  5
100
330
1F
100
AcDbEntity
  8
LAY-1
  6
CONTINUOUS
 62
     3
100
AcDbLine
 10
354.0000000000003
 20
209.5
 30
0.0
 11
352.4999999999999
 21
209.5
 31
0.0
  0
ARC
  5
101
330
1F
100
AcDbEntity
  8
LAY-1
  6
CONTINUOUS
 62
     3
100
AcDbCircle
 10
352.4999999999999
 20
211.0
 30
0.0
 40
1.5
100
AcDbArc
 50
180.0
 51
270.0
  0
LINE
  5
102
330
1F
100
AcDbEntity
  8
LAY-1
  6
CONTINUOUS
 62
     3
100
AcDbLine
 10
167.0000000000003
 20
211.0000000000002
 30
0.0
 11
167.0000000000003
 21
224.0000000000003
 31
0.0
  0
LINE
  5
103
330
1F
100
AcDbEntity
  8
LAY-1
  6
CONTINUOUS
 62
     3
100
AcDbLine
 10
163.9999999999999
 20
209.5000000000002
 30
0.0
 11
165.5000000000003
 21
209.5000000000002
 31
0.0
  0
ARC
  5
104
330
1F
100
AcDbEntity
  8
LAY-1
  6
CONTINUOUS
 62
     3
100
AcDbCircle
 10
165.5000000000003
 20
211.0000000000002
 30
0.0
 40
1.5
100
AcDbArc
 50
270.0
 51
0.0
  0
LINE
  5
105
330
1F
100
AcDbEntity
  8
LAY-1
  6
CONTINUOUS
 62
     3
100
AcDbLine
 10
354.0000000000001
 20
132.4999999999999
 30
0.0
 11
352.4999999999999
 21
132.4999999999999
 31
0.0
  0
LINE
  5
106
330
1F
100
AcDbEntity
  8
LAY-1
  6
CONTINUOUS
 62
     3
100
AcDbLine
 10
350.9999999999999
 20
118.0000000000002
 30
0.0
 11
350.9999999999999
 21
130.9999999999999
 31
0.0
  0
ARC
  5
107
330
1F
100
AcDbEntity
  8
LAY-1
  6
CONTINUOUS
 62
     3
100
AcDbCircle
 10
352.4999999999999
 20
130.9999999999999
 30
0.0
 40
1.5
100
AcDbArc
 50
90.00000000000001
 51
180.0
  0
LINE
  5
108
330
1F
100
AcDbEntity
  8
LAY-1
  6
CONTINUOUS
 62
     3
100
AcDbLine
 10
163.9999999999999
 20
132.5000000000002
 30
0.0
 11
165.5
 21
132.5000000000002
 31
0.0
  0
LINE
  5
109
330
1F
100
AcDbEntity
  8
LAY-1
  6
CONTINUOUS
 62
     3
100
AcDbLine
 10
167.0
 20
118.0000000000004
 30
0.0
 11
167.0
 21
131.0000000000002
 31
0.0
  0
ARC
  5
10A
330
1F
100
AcDbEntity
  8
LAY-1
  6
CONTINUOUS
 62
     3
100
AcDbCircle
 10
165.5
 20
131.0000000000002
 30
0.0
 40
1.5
100
AcDbArc
 50
0.0
 51
90.00000000000001
  0
LINE
  5
10B
330
1F
100
AcDbEntity
  8
LAY-1
  6
CONTINUOUS
 62
     3
100
AcDbLine
 10
259.0
 20
235.0
 30
0.0
 11
166.5
 21
235.0
 31
0.0
  0
LINE
  5
10C
330
1F
100
AcDbEntity
  8
LAY-1
  6
CONTINUOUS
 62
     3
100
AcDbLine
 10
259.0000000000001
 20
235.0
 30
0.0
 11
351.5
 21
235.0
 31
0.0
  0
LINE
  5
10D
330
1F
100
AcDbEntity
  8
LAY-1
  6
EXLTYPE2
 62
     1
100
AcDbLine
 10
118.0
 20
171.0000000000001
 30
0.0
 11
401.0
 21
171.0000000000002
 31
0.0
  0
ARC
  5
10E
330
1F
100
AcDbEntity
  8
LAY-1
  6
CONTINUOUS
 62
     3
100
AcDbCircle
 10
239.0000000000002
 20
486.3760245803302
 30
0.0
 40
3.0
100
AcDbArc
 50
110.5409775375478
 51
180.0
  0
LINE
  5
10F
330
1F
100
AcDbEntity
  8
LAY-1
  6
CONTINUOUS
 62
     3
100
AcDbLine
 10
236.0000000000002
 20
473.0000000000002
 30
0.0
 11
236.0000000000002
 21
486.3760245803302
 31
0.0
  0
ARC
  5
110
330
1F
100
AcDbEntity
  8
LAY-1
  6
CONTINUOUS
 62
     3
100
AcDbCircle
 10
233.0000000000002
 20
473.0000000000002
 30
0.0
 40
3.0
100
AcDbArc
 50
270.0
 51
0.0
  0
LINE
  5
111
330
1F
100
AcDbEntity
  8
LAY-1
  6
CONTINUOUS
 62
     3
100
AcDbLine
 10
233.0000000000002
 20
470.0000000000002
 30
0.0
 11
225.0000000000001
 21
470.0000000000002
 31
0.0
  0
ARC
  5
112
330
1F
100
AcDbEntity
  8
LAY-1
  6
CONTINUOUS
 62
     3
100
AcDbCircle
 10
225.0000000000001
 20
467.0000000000002
 30
0.0
 40
3.0
100
AcDbArc
 50
90.00000000000001
 51
180.0
  0
CIRCLE
  5
113
330
1F
100
AcDbEntity
  8
LAY-1
  6
CONTINUOUS
 62
     3
100
AcDbCircle
 10
231.0000000000001
 20
476.0000000000002
 30
0.0
 40
3.0
  0
LINE
  5
114
330
1F
100
AcDbEntity
  8
LAY-1
  6
CONTINUOUS
 62
     3
100
AcDbLine
 10
222.0
 20
386.0000000000002
 30
0.0
 11
222.0
 21
467.0000000000002
 31
0.0
  0
ARC
  5
115
330
1F
100
AcDbEntity
  8
LAY-1
  6
CONTINUOUS
 62
     3
100
AcDbCircle
 10
259.0000000000001
 20
433.0000000000002
 30
0.0
 40
60.0
100
AcDbArc
 50
231.7889745744389
 51
110.5409775375472
  0
LINE
  5
116
330
1F
100
AcDbEntity
  8
LAY-1
  6
CONTINUOUS
 62
     3
100
AcDbLine
 10
125.9999999999997
 20
520.5
 30
0.0
 11
141.9999999999997
 21
520.5
 31
0.0
  0
LINE
  5
117
330
1F
100
AcDbEntity
  8
LAY-1
  6
CONTINUOUS
 62
     3
100
AcDbLine
 10
124.0000000000009
 20
491.0000000000002
 30
0.0
 11
125.9999999999997
 21
491.0000000000002
 31
0.0
  0
LINE
  5
118
330
1F
100
AcDbEntity
  8
LAY-1
  6
CONTINUOUS
 62
     3
100
AcDbLine
 10
149.3900310561997
 20
474.156357989782
 30
0.0
 11
163.9999999999997
 21
471.5000000000002
 31
0.0
  0
ARC
  5
119
330
1F
100
AcDbEntity
  8
LAY-1
  6
CONTINUOUS
 62
     3
100
AcDbCircle
 10
150.9999999999997
 20
483.0111871806811
 30
0.0
 40
9.0
100
AcDbArc
 50
180.0
 51
259.6951535312335
  0
LINE
  5
11A
330
1F
100
AcDbEntity
  8
LAY-1
  6
CONTINUOUS
 62
     3
100
AcDbLine
 10
149.3900310561997
 20
391.8436420102184
 30
0.0
 11
163.9999999999997
 21
394.5000000000002
 31
0.0
  0
ARC
  5
11B
330
1F
100
AcDbEntity
  8
LAY-1
  6
CONTINUOUS
 62
     3
100
AcDbCircle
 10
150.9999999999997
 20
382.9888128193193
 30
0.0
 40
9.0
100
AcDbArc
 50
100.3048464687664
 51
180.0
  0
LINE
  5
11C
330
1F
100
AcDbEntity
  8
LAY-1
  6
CONTINUOUS
 62
     3
100
AcDbLine
 10
124.0000000000009
 20
491.0000000000002
 30
0.0
 11
124.0000000000009
 21
375.0000000000002
 31
0.0
  0
LINE
  5
11D
330
1F
100
AcDbEntity
  8
LAY-1
  6
CONTINUOUS
 62
     3
100
AcDbLine
 10
125.9999999999997
 20
345.5000000000003
 30
0.0
 11
141.9999999999997
 21
345.5000000000003
 31
0.0
  0
LINE
  5
11E
330
1F
100
AcDbEntity
  8
LAY-1
  6
CONTINUOUS
 62
     3
100
AcDbLine
 10
124.0000000000009
 20
375.0000000000002
 30
0.0
 11
125.9999999999997
 21
375.0000000000002
 31
0.0
  0
LINE
  5
11F
330
1F
100
AcDbEntity
  8
LAY-1
  6
CONTINUOUS
 62
     3
100
AcDbLine
 10
141.9999999999997
 20
382.9888128193203
 30
0.0
 11
141.9999999999997
 21
345.5000000000002
 31
0.0
  0
LINE
  5
120
330
1F
100
AcDbEntity
  8
LAY-1
  6
EXLTYPE2
 62
     1
100
AcDbLine
 10
119.1
 20
503.0000000000002
 30
0.0
 11
150.6
 21
503.0000000000002
 31
0.0
  0
LINE
  5
121
330
1F
100
AcDbEntity
  8
LAY-1
  6
EXLTYPE2
 62
     1
100
AcDbLine
 10
119.1
 20
363.0000000000002
 30
0.0
 11
150.6
 21
363.0000000000002
 31
0.0
  0
LINE
  5
122
330
1F
100
AcDbEntity
  8
LAY-1
  6
CONTINUOUS
 62
     3
100
AcDbLine
 10
164.0000000000001
 20
471.5000000000002
 30
0.0
 11
175.4431331367673
 21
471.5000000000002
 31
0.0
  0
LINE
  5
123
330
1F
100
AcDbEntity
  8
LAY-1
  6
CONTINUOUS
 62
     3
100
AcDbLine
 10
164.0000000000001
 20
394.5000000000002
 30
0.0
 11
175.4431331367673
 21
394.5000000000002
 31
0.0
  0
LINE
  5
124
330
1F
100
AcDbEntity
  8
LAY-1
  6
CONTINUOUS
 62
     3
100
AcDbLine
 10
141.9999999999997
 20
382.9888128193193
 30
0.0
 11
141.9999999999997
 21
520.5
 31
0.0
  0
LINE
  5
125
330
1F
100
AcDbEntity
  8
LAY-1
  6
CONTINUOUS
 62
     3
100
AcDbLine
 10
125.9999999999995
 20
345.5000000000002
 30
0.0
 11
125.9999999999995
 21
520.5
 31
0.0
  0
LINE
  5
126
330
1F
100
AcDbEntity
  8
LAY-1
  6
CONTINUOUS
 62
     3
100
AcDbLine
 10
392.0000000000003
 20
520.5
 30
0.0
 11
376.0000000000003
 21
520.5
 31
0.0
  0
LINE
  5
127
330
1F
100
AcDbEntity
  8
LAY-1
  6
CONTINUOUS
 62
     3
100
AcDbLine
 10
393.9999999999992
 20
491.0000000000002
 30
0.0
 11
392.0000000000003
 21
491.0000000000002
 31
0.0
  0
LINE
  5
128
330
1F
100
AcDbEntity
  8
LAY-1
  6
CONTINUOUS
 62
     3
100
AcDbLine
 10
368.6099689438003
 20
474.156357989782
 30
0.0
 11
354.0000000000003
 21
471.5000000000002
 31
0.0
  0
ARC
  5
129
330
1F
100
AcDbEntity
  8
LAY-1
  6
CONTINUOUS
 62
     3
100
AcDbCircle
 10
367.0000000000003
 20
483.0111871806811
 30
0.0
 40
9.0
100
AcDbArc
 50
280.3048464687666
 51
0.0
  0
LINE
  5
12A
330
1F
100
AcDbEntity
  8
LAY-1
  6
CONTINUOUS
 62
     3
100
AcDbLine
 10
368.6099689438003
 20
391.8436420102184
 30
0.0
 11
354.0000000000003
 21
394.5000000000002
 31
0.0
  0
ARC
  5
12B
330
1F
100
AcDbEntity
  8
LAY-1
  6
CONTINUOUS
 62
     3
100
AcDbCircle
 10
367.0000000000003
 20
382.9888128193193
 30
0.0
 40
9.0
100
AcDbArc
 50
0.0
 51
79.69515353123361
  0
LINE
  5
12C
330
1F
100
AcDbEntity
  8
LAY-1
  6
CONTINUOUS
 62
     3
100
AcDbLine
 10
393.9999999999992
 20
491.0000000000002
 30
0.0
 11
393.999999999999
 21
375.0000000000002
 31
0.0
  0
LINE
  5
12D
330
1F
100
AcDbEntity
  8
LAY-1
  6
CONTINUOUS
 62
     3
100
AcDbLine
 10
392.0000000000003
 20
345.5000000000003
 30
0.0
 11
376.0000000000003
 21
345.5000000000003
 31
0.0
  0
LINE
  5
12E
330
1F
100
AcDbEntity
  8
LAY-1
  6
CONTINUOUS
 62
     3
100
AcDbLine
 10
393.999999999999
 20
375.0000000000002
 30
0.0
 11
392.0000000000003
 21
375.0000000000002
 31
0.0
  0
LINE
  5
12F
330
1F
100
AcDbEntity
  8
LAY-1
  6
CONTINUOUS
 62
     3
100
AcDbLine
 10
376.0000000000003
 20
382.9888128193203
 30
0.0
 11
376.0000000000003
 21
345.5000000000002
 31
0.0
  0
LINE
  5
130
330
1F
100
AcDbEntity
  8
LAY-1
  6
EXLTYPE2
 62
     1
100
AcDbLine
 10
398.9
 20
503.0000000000002
 30
0.0
 11
367.4
 21
503.0000000000002
 31
0.0
  0
LINE
  5
131
330
1F
100
AcDbEntity
  8
LAY-1
  6
EXLTYPE2
 62
     1
100
AcDbLine
 10
398.9
 20
363.0000000000002
 30
0.0
 11
367.4
 21
363.0000000000002
 31
0.0
  0
LINE
  5
132
330
1F
100
AcDbEntity
  8
LAY-1
  6
CONTINUOUS
 62
     3
100
AcDbLine
 10
353.9999999999999
 20
471.5000000000002
 30
0.0
 11
342.5568668632326
 21
471.5000000000002
 31
0.0
  0
LINE
  5
133
330
1F
100
AcDbEntity
  8
LAY-1
  6
CONTINUOUS
 62
     3
100
AcDbLine
 10
353.9999999999999
 20
394.5000000000002
 30
0.0
 11
342.5568668632326
 21
394.5000000000002
 31
0.0
  0
LINE
  5
134
330
1F
100
AcDbEntity
  8
LAY-1
  6
CONTINUOUS
 62
     3
100
AcDbLine
 10
376.0000000000003
 20
382.9888128193193
 30
0.0
 11
376.0000000000003
 21
520.5
 31
0.0
  0
LINE
  5
135
330
1F
100
AcDbEntity
  8
LAY-1
  6
CONTINUOUS
 62
     3
100
AcDbLine
 10
392.0000000000003
 20
345.5000000000002
 30
0.0
 11
392.0000000000006
 21
520.5
 31
0.0
  0
CIRCLE
  5
136
330
1F
100
AcDbEntity
  8
LAY-1
  6
CONTINUOUS
 62
     3
100
AcDbCircle
 10
259.0
 20
433.0
 30
0.0
 40
92.5
  0
CIRCLE
  5
137
330
1F
100
AcDbEntity
  8
LAY-1
  6
CONTINUOUS
 62
     3
100
AcDbCircle
 10
259.0
 20
433.0
 30
0.0
 40
60.0
  0
LINE
  5
138
330
1F
100
AcDbEntity
  8
LAY-1
  6
EXLTYPE2
 62
     1
100
AcDbLine
 10
339.1073498500589
 20
479.250000000003
 30
0.0
 11
319.0394191624415
 21
467.6637748154285
 31
0.0
  0
LINE
  5
139
330
1F
100
AcDbEntity
  8
LAY-1
  6
EXLTYPE2
 62
     1
100
AcDbLine
 10
258.9999999999966
 20
525.5
 30
0.0
 11
258.9999999999965
 21
502.3275496308508
 31
0.0
  0
LINE
  5
13A
330
1F
100
AcDbEntity
  8
LAY-1
  6
EXLTYPE2
 62
     1
100
AcDbLine
 10
339.1073498500589
 20
386.749999999997
 30
0.0
 11
319.0394191624415
 21
398.3362251845715
 31
0.0
  0
LINE
  5
13B
330
1F
100
AcDbEntity
  8
LAY-1
  6
EXLTYPE2
 62
     1
100
AcDbLine
 10
258.9999999999966
 20
340.5
 30
0.0
 11
258.9999999999965
 21
363.6724503691492
 31
0.0
  0
LINE
  5
13C
330
1F
100
AcDbEntity
  8
LAY-1
  6
EXLTYPE2
 62
     1
100
AcDbLine
 10
178.8926501499413
 20
479.250000000003
 30
0.0
 11
198.9605808375586
 21
467.6637748154285
 31
0.0
  0
LINE
  5
13D
330
1F
100
AcDbEntity
  8
LAY-1
  6
EXLTYPE2
 62
     1
100
AcDbLine
 10
178.8926501499411
 20
386.749999999997
 30
0.0
 11
198.9605808375586
 21
398.3362251845715
 31
0.0
  0
LINE
  5
13E
330
1F
100
AcDbEntity
  8
LAY-1
  6
CONTINUOUS
 62
     3
100
AcDbLine
 10
330.4999999999998
 20
445.5
 30
0.0
 11
322.5
 21
445.5
 31
0.0
  0
LINE
  5
13F
330
1F
100
AcDbEntity
  8
LAY-1
  6
CONTINUOUS
 62
     3
100
AcDbLine
 10
330.4999999999998
 20
439.5
 30
0.0
 11
322.5
 21
439.5
 31
0.0
  0
LINE
  5
140
330
1F
100
AcDbEntity
  8
LAY-1
  6
CONTINUOUS
 62
     3
100
AcDbLine
 10
330.4999999999998
 20
426.5
 30
0.0
 11
322.5
 21
426.5
 31
0.0
  0
LINE
  5
141
330
1F
100
AcDbEntity
  8
LAY-1
  6
CONTINUOUS
 62
     3
100
AcDbLine
 10
330.4999999999998
 20
420.5
 30
0.0
 11
322.5
 21
420.5
 31
0.0
  0
LINE
  5
142
330
1F
100
AcDbEntity
  8
LAY-1
  6
CONTINUOUS
 62
     3
100
AcDbLine
 10
330.4999999999998
 20
439.5
 30
0.0
 11
330.4999999999998
 21
445.5
 31
0.0
  0
LINE
  5
143
330
1F
100
AcDbEntity
  8
LAY-1
  6
CONTINUOUS
 62
     3
100
AcDbLine
 10
322.5
 20
439.5
 30
0.0
 11
322.5
 21
445.5
 31
0.0
  0
LINE
  5
144
330
1F
100
AcDbEntity
  8
LAY-1
  6
CONTINUOUS
 62
     3
100
AcDbLine
 10
330.4999999999998
 20
420.5
 30
0.0
 11
330.4999999999998
 21
426.5
 31
0.0
  0
LINE
  5
145
330
1F
100
AcDbEntity
  8
LAY-1
  6
CONTINUOUS
 62
     3
100
AcDbLine
 10
322.5
 20
420.5
 30
0.0
 11
322.5
 21
426.5
 31
0.0
  0
LINE
  5
146
330
1F
100
AcDbEntity
  8
LAY-1
  6
CONTINUOUS
 62
     3
100
AcDbLine
 10
187.5000000000004
 20
445.5
 30
0.0
 11
195.5000000000001
 21
445.5
 31
0.0
  0
LINE
  5
147
330
1F
100
AcDbEntity
  8
LAY-1
  6
CONTINUOUS
 62
     3
100
AcDbLine
 10
187.5000000000004
 20
439.5
 30
0.0
 11
195.5000000000001
 21
439.5
 31
0.0
  0
LINE
  5
148
330
1F
100
AcDbEntity
  8
LAY-1
  6
CONTINUOUS
 62
     3
100
AcDbLine
 10
187.5000000000004
 20
426.5
 30
0.0
 11
195.5000000000001
 21
426.5
 31
0.0
  0
LINE
  5
149
330
1F
100
AcDbEntity
  8
LAY-1
  6
CONTINUOUS
 62
     3
100
AcDbLine
 10
187.5000000000004
 20
420.5
 30
0.0
 11
195.5000000000001
 21
420.5
 31
0.0
  0
LINE
  5
14A
330
1F
100
AcDbEntity
  8
LAY-1
  6
CONTINUOUS
 62
     3
100
AcDbLine
 10
187.5000000000004
 20
439.5
 30
0.0
 11
187.5000000000004
 21
445.5
 31
0.0
  0
LINE
  5
14B
330
1F
100
AcDbEntity
  8
LAY-1
  6
CONTINUOUS
 62
     3
100
AcDbLine
 10
195.5000000000001
 20
439.5
 30
0.0
 11
195.5000000000001
 21
445.5
 31
0.0
  0
LINE
  5
14C
330
1F
100
AcDbEntity
  8
LAY-1
  6
CONTINUOUS
 62
     3
100
AcDbLine
 10
187.5000000000004
 20
420.5
 30
0.0
 11
187.5000000000004
 21
426.5
 31
0.0
  0
LINE
  5
14D
330
1F
100
AcDbEntity
  8
LAY-1
  6
CONTINUOUS
 62
     3
100
AcDbLine
 10
195.5000000000001
 20
420.5
 30
0.0
 11
195.5000000000001
 21
426.5
 31
0.0
  0
LINE
  5
14E
330
1F
100
AcDbEntity
  8
LAY-1
  6
CONTINUOUS
 62
     3
100
AcDbLine
 10
338.4191197709723
 20
441.9442719099876
 30
0.0
 11
338.4191197709723
 21
441.9999999999884
 31
0.0
  0
LINE
  5
14F
330
1F
100
AcDbEntity
  8
LAY-1
  6
CONTINUOUS
 62
     3
100
AcDbLine
 10
344.4191197709723
 20
441.9442719099876
 30
0.0
 11
344.4191197709723
 21
441.9999999999884
 31
0.0
  0
LINE
  5
150
330
1F
100
AcDbEntity
  8
LAY-1
  6
EXLTYPE2
 62
     1
100
AcDbLine
 10
333.5000000000003
 20
432.9999999999991
 30
0.0
 11
349.5000000000003
 21
432.9999999999991
 31
0.0
  0
LINE
  5
151
330
1F
100
AcDbEntity
  8
LAY-1
  6
CONTINUOUS
 62
     3
100
AcDbLine
 10
189.71796769725
 20
256.0
 30
0.0
 11
178.96796769725
 21
256.0
 31
0.0
  0
LINE
  5
152
330
1F
100
AcDbEntity
  8
LAY-1
  6
CONTINUOUS
 62
     3
100
AcDbLine
 10
178.96796769725
 20
253.0000000000002
 30
0.0
 11
178.96796769725
 21
256.0
 31
0.0
  0
LINE
  5
153
330
1F
100
AcDbEntity
  8
LAY-1
  6
CONTINUOUS
 62
     3
100
AcDbLine
 10
189.71796769725
 20
256.0
 30
0.0
 11
200.46796769725
 21
256.0
 31
0.0
  0
LINE
  5
154
330
1F
100
AcDbEntity
  8
LAY-1
  6
CONTINUOUS
 62
     3
100
AcDbLine
 10
200.46796769725
 20
253.0000000000002
 30
0.0
 11
200.46796769725
 21
256.0
 31
0.0
  0
LINE
  5
155
330
1F
100
AcDbEntity
  8
LAY-1
  6
CONTINUOUS
 62
     3
100
AcDbLine
 10
188.71796769725
 20
256.0
 30
0.0
 11
190.71796769725
 21
253.0
 31
0.0
  0
LINE
  5
156
330
1F
100
AcDbEntity
  8
LAY-1
  6
CONTINUOUS
 62
     3
100
AcDbLine
 10
200.68766369725
 20
256.0
 30
0.0
 11
178.74827169725
 21
256.0
 31
0.0
  0
LINE
  5
157
330
1F
100
AcDbEntity
  8
LAY-1
  6
CONTINUOUS
 62
     3
100
AcDbLine
 10
180.71793769725
 20
264.0
 30
0.0
 11
198.71793769725
 21
264.0
 31
0.0
  0
LINE
  5
158
330
1F
100
AcDbEntity
  8
LAY-1
  6
CONTINUOUS
 62
     3
100
AcDbLine
 10
198.71793769725
 20
264.0
 30
0.0
 11
200.6877256972501
 21
262.862732
 31
0.0
  0
ARC
  5
159
330
1F
100
AcDbEntity
  8
LAY-1
  6
CONTINUOUS
 62
     3
100
AcDbCircle
 10
189.7173276972501
 20
250.20523
 30
0.0
 40
13.794775
100
AcDbArc
 50
66.5695410695425
 51
113.4257430764437
  0
ARC
  5
15A
330
1F
100
AcDbEntity
  8
LAY-1
  6
CONTINUOUS
 62
     3
100
AcDbCircle
 10
198.8038136972501
 20
257.730133
 30
0.0
 40
6.271714
100
AcDbArc
 50
90.78468554827452
 51
125.0556976977885
  0
LINE
  5
15B
330
1F
100
AcDbEntity
  8
LAY-1
  6
CONTINUOUS
 62
     3
100
AcDbLine
 10
180.71793769725
 20
264.0
 30
0.0
 11
178.7481496972501
 21
262.862732
 31
0.0
  0
ARC
  5
15C
330
1F
100
AcDbEntity
  8
LAY-1
  6
CONTINUOUS
 62
     3
100
AcDbCircle
 10
180.63206069725
 20
257.730133
 30
0.0
 40
6.271714
100
AcDbArc
 50
54.94430230221143
 51
89.21531445172546
  0
LINE
  5
15D
330
1F
100
AcDbEntity
  8
LAY-1
  6
CONTINUOUS
 62
     3
100
AcDbLine
 10
200.68766369725
 20
256.0
 30
0.0
 11
200.6876946972501
 21
262.862732
 31
0.0
  0
LINE
  5
15E
330
1F
100
AcDbEntity
  8
LAY-1
  6
CONTINUOUS
 62
     3
100
AcDbLine
 10
195.20267869725
 20
256.000061
 30
0.0
 11
195.20270969725
 21
262.862732
 31
0.0
  0
LINE
  5
15F
330
1F
100
AcDbEntity
  8
LAY-1
  6
CONTINUOUS
 62
     3
100
AcDbLine
 10
184.2331656972501
 20
256.000061
 30
0.0
 11
184.23318069725
 21
262.862732
 31
0.0
  0
LINE
  5
160
330
1F
100
AcDbEntity
  8
LAY-1
  6
CONTINUOUS
 62
     3
100
AcDbLine
 10
178.7481656972501
 20
256.0
 30
0.0
 11
178.74818069725
 21
262.862732
 31
0.0
  0
LINE
  5
161
330
1F
100
AcDbEntity
  8
LAY-1
  6
CONTINUOUS
 62
     1
100
AcDbLine
 10
184.6649586972501
 20
235.0
 30
0.0
 11
184.6649586972501
 21
224.0000000000002
 31
0.0
  0
LINE
  5
162
330
1F
100
AcDbEntity
  8
LAY-1
  6
CONTINUOUS
 62
     3
100
AcDbLine
 10
183.71793769725
 20
235.0
 30
0.0
 11
183.71793769725
 21
224.0000000000002
 31
0.0
  0
LINE
  5
163
330
1F
100
AcDbEntity
  8
LAY-1
  6
CONTINUOUS
 62
     1
100
AcDbLine
 10
194.77091569725
 20
235.0
 30
0.0
 11
194.77091569725
 21
224.0000000000002
 31
0.0
  0
LINE
  5
164
330
1F
100
AcDbEntity
  8
LAY-1
  6
CONTINUOUS
 62
     3
100
AcDbLine
 10
195.71793769725
 20
235.0
 30
0.0
 11
195.71793769725
 21
224.0000000000002
 31
0.0
  0
ARC
  5
165
330
1F
100
AcDbEntity
  8
LAY-1
  6
CONTINUOUS
 62
     3
100
AcDbCircle
 10
191.4999999999998
 20
261.0
 30
0.0
 40
4.0
100
AcDbArc
 50
48.59037789072902
 51
131.4096221092709
  0
LINE
  5
166
330
1F
100
AcDbEntity
  8
LAY-1
  6
EXLTYPE2
 62
     1
100
AcDbLine
 10
189.7179676972501
 20
269.0
 30
0.0
 11
189.7179676972501
 21
208.0000000000006
 31
0.0
  0
LINE
  5
167
330
1F
100
AcDbEntity
  8
LAY-1
  6
EXLTYPE2
 62
     1
100
AcDbLine
 10
328.2820323027497
 20
269.0
 30
0.0
 11
328.2820323027497
 21
208.0000000000006
 31
0.0
  0
LINE
  5
168
330
1F
100
AcDbEntity
  8
LAY-1
  6
CONTINUOUS
 62
     3
100
AcDbLine
 10
259.0
 20
256.0
 30
0.0
 11
248.25
 21
256.0
 31
0.0
  0
LINE
  5
169
330
1F
100
AcDbEntity
  8
LAY-1
  6
CONTINUOUS
 62
     3
100
AcDbLine
 10
248.25
 20
253.0000000000002
 30
0.0
 11
248.25
 21
256.0
 31
0.0
  0
LINE
  5
16A
330
1F
100
AcDbEntity
  8
LAY-1
  6
CONTINUOUS
 62
     3
100
AcDbLine
 10
259.0
 20
256.0
 30
0.0
 11
269.75
 21
256.0
 31
0.0
  0
LINE
  5
16B
330
1F
100
AcDbEntity
  8
LAY-1
  6
CONTINUOUS
 62
     3
100
AcDbLine
 10
269.75
 20
253.0000000000002
 30
0.0
 11
269.75
 21
256.0
 31
0.0
  0
LINE
  5
16C
330
1F
100
AcDbEntity
  8
LAY-1
  6
CONTINUOUS
 62
     3
100
AcDbLine
 10
258.0
 20
256.0
 30
0.0
 11
260.0
 21
253.0
 31
0.0
  0
LINE
  5
16D
330
1F
100
AcDbEntity
  8
LAY-1
  6
CONTINUOUS
 62
     3
100
AcDbLine
 10
269.969696
 20
256.0
 30
0.0
 11
248.030304
 21
256.0
 31
0.0
  0
LINE
  5
16E
330
1F
100
AcDbEntity
  8
LAY-1
  6
CONTINUOUS
 62
     3
100
AcDbLine
 10
249.99997
 20
264.0
 30
0.0
 11
267.99997
 21
264.0
 31
0.0
  0
LINE
  5
16F
330
1F
100
AcDbEntity
  8
LAY-1
  6
CONTINUOUS
 62
     3
100
AcDbLine
 10
267.99997
 20
264.0
 30
0.0
 11
269.9697580000001
 21
262.862732
 31
0.0
  0
ARC
  5
170
330
1F
100
AcDbEntity
  8
LAY-1
  6
CONTINUOUS
 62
     3
100
AcDbCircle
 10
258.99936
 20
250.20523
 30
0.0
 40
13.794775
100
AcDbArc
 50
66.5695410695425
 51
113.4257430764437
  0
ARC
  5
171
330
1F
100
AcDbEntity
  8
LAY-1
  6
CONTINUOUS
 62
     3
100
AcDbCircle
 10
268.0858460000001
 20
257.730133
 30
0.0
 40
6.271714
100
AcDbArc
 50
90.78468554827452
 51
125.0556976977885
  0
LINE
  5
172
330
1F
100
AcDbEntity
  8
LAY-1
  6
CONTINUOUS
 62
     3
100
AcDbLine
 10
249.99997
 20
264.0
 30
0.0
 11
248.0301820000001
 21
262.862732
 31
0.0
  0
ARC
  5
173
330
1F
100
AcDbEntity
  8
LAY-1
  6
CONTINUOUS
 62
     3
100
AcDbCircle
 10
249.914093
 20
257.730133
 30
0.0
 40
6.271714
100
AcDbArc
 50
54.94430230221143
 51
89.21531445172546
  0
LINE
  5
174
330
1F
100
AcDbEntity
  8
LAY-1
  6
CONTINUOUS
 62
     3
100
AcDbLine
 10
269.969696
 20
256.0
 30
0.0
 11
269.969727
 21
262.862732
 31
0.0
  0
LINE
  5
175
330
1F
100
AcDbEntity
  8
LAY-1
  6
CONTINUOUS
 62
     3
100
AcDbLine
 10
264.4847109999999
 20
256.000061
 30
0.0
 11
264.484742
 21
262.862732
 31
0.0
  0
LINE
  5
176
330
1F
100
AcDbEntity
  8
LAY-1
  6
CONTINUOUS
 62
     3
100
AcDbLine
 10
253.5151980000001
 20
256.000061
 30
0.0
 11
253.515213
 21
262.862732
 31
0.0
  0
LINE
  5
177
330
1F
100
AcDbEntity
  8
LAY-1
  6
CONTINUOUS
 62
     3
100
AcDbLine
 10
248.030198
 20
256.0
 30
0.0
 11
248.030213
 21
262.862732
 31
0.0
  0
LINE
  5
178
330
1F
100
AcDbEntity
  8
LAY-1
  6
CONTINUOUS
 62
     1
100
AcDbLine
 10
253.946991
 20
235.0
 30
0.0
 11
253.946991
 21
224.0000000000002
 31
0.0
  0
LINE
  5
179
330
1F
100
AcDbEntity
  8
LAY-1
  6
CONTINUOUS
 62
     3
100
AcDbLine
 10
252.99997
 20
235.0
 30
0.0
 11
252.99997
 21
224.0000000000002
 31
0.0
  0
LINE
  5
17A
330
1F
100
AcDbEntity
  8
LAY-1
  6
CONTINUOUS
 62
     1
100
AcDbLine
 10
264.052948
 20
235.0
 30
0.0
 11
264.052948
 21
224.0000000000002
 31
0.0
  0
LINE
  5
17B
330
1F
100
AcDbEntity
  8
LAY-1
  6
CONTINUOUS
 62
     3
100
AcDbLine
 10
264.99997
 20
235.0
 30
0.0
 11
264.99997
 21
224.0000000000002
 31
0.0
  0
LINE
  5
17C
330
1F
100
AcDbEntity
  8
LAY-1
  6
CONTINUOUS
 62
     3
100
AcDbLine
 10
328.28203230275
 20
256.0
 30
0.0
 11
317.53203230275
 21
256.0
 31
0.0
  0
LINE
  5
17D
330
1F
100
AcDbEntity
  8
LAY-1
  6
CONTINUOUS
 62
     3
100
AcDbLine
 10
317.53203230275
 20
253.0000000000002
 30
0.0
 11
317.53203230275
 21
256.0
 31
0.0
  0
LINE
  5
17E
330
1F
100
AcDbEntity
  8
LAY-1
  6
CONTINUOUS
 62
     3
100
AcDbLine
 10
328.28203230275
 20
256.0
 30
0.0
 11
339.03203230275
 21
256.0
 31
0.0
  0
LINE
  5
17F
330
1F
100
AcDbEntity
  8
LAY-1
  6
CONTINUOUS
 62
     3
100
AcDbLine
 10
339.03203230275
 20
253.0000000000002
 30
0.0
 11
339.03203230275
 21
256.0
 31
0.0
  0
LINE
  5
180
330
1F
100
AcDbEntity
  8
LAY-1
  6
CONTINUOUS
 62
     3
100
AcDbLine
 10
327.28203230275
 20
256.0
 30
0.0
 11
329.28203230275
 21
253.0
 31
0.0
  0
LINE
  5
181
330
1F
100
AcDbEntity
  8
LAY-1
  6
CONTINUOUS
 62
     3
100
AcDbLine
 10
339.25172830275
 20
256.0
 30
0.0
 11
317.31233630275
 21
256.0
 31
0.0
  0
LINE
  5
182
330
1F
100
AcDbEntity
  8
LAY-1
  6
CONTINUOUS
 62
     3
100
AcDbLine
 10
319.28200230275
 20
264.0
 30
0.0
 11
337.28200230275
 21
264.0
 31
0.0
  0
LINE
  5
183
330
1F
100
AcDbEntity
  8
LAY-1
  6
CONTINUOUS
 62
     3
100
AcDbLine
 10
337.28200230275
 20
264.0
 30
0.0
 11
339.2517903027501
 21
262.862732
 31
0.0
  0
ARC
  5
184
330
1F
100
AcDbEntity
  8
LAY-1
  6
CONTINUOUS
 62
     3
100
AcDbCircle
 10
328.28139230275
 20
250.20523
 30
0.0
 40
13.794775
100
AcDbArc
 50
66.5695410695425
 51
113.4257430764437
  0
ARC
  5
185
330
1F
100
AcDbEntity
  8
LAY-1
  6
CONTINUOUS
 62
     3
100
AcDbCircle
 10
337.3678783027501
 20
257.730133
 30
0.0
 40
6.271714
100
AcDbArc
 50
90.78468554827452
 51
125.0556976977885
  0
LINE
  5
186
330
1F
100
AcDbEntity
  8
LAY-1
  6
CONTINUOUS
 62
     3
100
AcDbLine
 10
319.28200230275
 20
264.0
 30
0.0
 11
317.3122143027501
 21
262.862732
 31
0.0
  0
ARC
  5
187
330
1F
100
AcDbEntity
  8
LAY-1
  6
CONTINUOUS
 62
     3
100
AcDbCircle
 10
319.19612530275
 20
257.730133
 30
0.0
 40
6.271714
100
AcDbArc
 50
54.94430230221143
 51
89.21531445172546
  0
LINE
  5
188
330
1F
100
AcDbEntity
  8
LAY-1
  6
CONTINUOUS
 62
     3
100
AcDbLine
 10
339.25172830275
 20
256.0
 30
0.0
 11
339.25175930275
 21
262.862732
 31
0.0
  0
LINE
  5
189
330
1F
100
AcDbEntity
  8
LAY-1
  6
CONTINUOUS
 62
     3
100
AcDbLine
 10
333.7667433027499
 20
256.000061
 30
0.0
 11
333.76677430275
 21
262.862732
 31
0.0
  0
LINE
  5
18A
330
1F
100
AcDbEntity
  8
LAY-1
  6
CONTINUOUS
 62
     3
100
AcDbLine
 10
322.7972303027501
 20
256.000061
 30
0.0
 11
322.79724530275
 21
262.862732
 31
0.0
  0
LINE
  5
18B
330
1F
100
AcDbEntity
  8
LAY-1
  6
CONTINUOUS
 62
     3
100
AcDbLine
 10
317.31223030275
 20
256.0
 30
0.0
 11
317.31224530275
 21
262.862732
 31
0.0
  0
LINE
  5
18C
330
1F
100
AcDbEntity
  8
LAY-1
  6
CONTINUOUS
 62
     1
100
AcDbLine
 10
323.22902330275
 20
235.0
 30
0.0
 11
323.22902330275
 21
224.0000000000002
 31
0.0
  0
LINE
  5
18D
330
1F
100
AcDbEntity
  8
LAY-1
  6
CONTINUOUS
 62
     3
100
AcDbLine
 10
322.28200230275
 20
235.0
 30
0.0
 11
322.28200230275
 21
224.0000000000002
 31
0.0
  0
LINE
  5
18E
330
1F
100
AcDbEntity
  8
LAY-1
  6
CONTINUOUS
 62
     1
100
AcDbLine
 10
333.33498030275
 20
235.0
 30
0.0
 11
333.33498030275
 21
224.0000000000002
 31
0.0
  0
LINE
  5
18F
330
1F
100
AcDbEntity
  8
LAY-1
  6
CONTINUOUS
 62
     3
100
AcDbLine
 10
334.28200230275
 20
235.0
 30
0.0
 11
334.28200230275
 21
224.0000000000002
 31
0.0
  0
ARC
  5
190
330
1F
100
AcDbEntity
  8
LAY-1
  6
CONTINUOUS
 62
     3
100
AcDbCircle
 10
326.4999999999997
 20
261.0
 30
0.0
 40
4.0
100
AcDbArc
 50
48.59037789072902
 51
131.4096221092709
  0
LINE
  5
191
330
1F
100
AcDbEntity
  8
LAY-1
  6
CONTINUOUS
 62
     3
100
AcDbLine
 10
351.5
 20
253.0
 30
0.0
 11
351.5
 21
235.0
 31
0.0
  0
LINE
  5
192
330
1F
100
AcDbEntity
  8
LAY-1
  6
CONTINUOUS
 62
     3
100
AcDbLine
 10
166.5
 20
253.0
 30
0.0
 11
351.5
 21
253.0
 31
0.0
  0
LINE
  5
193
330
1F
100
AcDbEntity
  8
LAY-1
  6
CONTINUOUS
 62
     3
100
AcDbLine
 10
166.5
 20
253.0
 30
0.0
 11
166.5
 21
235.0
 31
0.0
  0
LINE
  5
194
330
1F
100
AcDbEntity
  8
LAY-1
  6
CONTINUOUS
 62
     3
100
AcDbLine
 10
259.0
 20
107.0000000000003
 30
0.0
 11
166.5000000000001
 21
107.0000000000003
 31
0.0
  0
LINE
  5
195
330
1F
100
AcDbEntity
  8
LAY-1
  6
CONTINUOUS
 62
     3
100
AcDbLine
 10
259.0000000000001
 20
107.0000000000003
 30
0.0
 11
351.5
 21
107.0000000000004
 31
0.0
  0
LINE
  5
196
330
1F
100
AcDbEntity
  8
LAY-1
  6
CONTINUOUS
 62
     3
100
AcDbLine
 10
189.7179676972501
 20
86.00000000000027
 30
0.0
 11
178.9679676972501
 21
86.00000000000026
 31
0.0
  0
LINE
  5
197
330
1F
100
AcDbEntity
  8
LAY-1
  6
CONTINUOUS
 62
     3
100
AcDbLine
 10
178.9679676972501
 20
89.00000000000003
 30
0.0
 11
178.9679676972501
 21
86.00000000000026
 31
0.0
  0
LINE
  5
198
330
1F
100
AcDbEntity
  8
LAY-1
  6
CONTINUOUS
 62
     3
100
AcDbLine
 10
189.7179676972501
 20
86.00000000000027
 30
0.0
 11
200.4679676972501
 21
86.00000000000027
 31
0.0
  0
LINE
  5
199
330
1F
100
AcDbEntity
  8
LAY-1
  6
CONTINUOUS
 62
     3
100
AcDbLine
 10
200.4679676972501
 20
89.00000000000004
 30
0.0
 11
200.4679676972501
 21
86.00000000000027
 31
0.0
  0
LINE
  5
19A
330
1F
100
AcDbEntity
  8
LAY-1
  6
CONTINUOUS
 62
     3
100
AcDbLine
 10
200.6876636972501
 20
86.00000000000027
 30
0.0
 11
178.7482716972501
 21
86.00000000000026
 31
0.0
  0
LINE
  5
19B
330
1F
100
AcDbEntity
  8
LAY-1
  6
CONTINUOUS
 62
     3
100
AcDbLine
 10
180.7179376972501
 20
78.00000000000027
 30
0.0
 11
198.7179376972501
 21
78.00000000000027
 31
0.0
  0
LINE
  5
19C
330
1F
100
AcDbEntity
  8
LAY-1
  6
CONTINUOUS
 62
     3
100
AcDbLine
 10
198.7179376972501
 20
78.00000000000027
 30
0.0
 11
200.6877256972502
 21
79.13726800000028
 31
0.0
  0
ARC
  5
19D
330
1F
100
AcDbEntity
  8
LAY-1
  6
CONTINUOUS
 62
     3
100
AcDbCircle
 10
189.7173276972501
 20
91.7947700000003
 30
0.0
 40
13.794775
100
AcDbArc
 50
246.5742569235564
 51
293.4304589304576
  0
ARC
  5
19E
330
1F
100
AcDbEntity
  8
LAY-1
  6
CONTINUOUS
 62
     3
100
AcDbCircle
 10
198.8038136972501
 20
84.2698670000003
 30
0.0
 40
6.271714
100
AcDbArc
 50
234.9443023022118
 51
269.2153144517258
  0
LINE
  5
19F
330
1F
100
AcDbEntity
  8
LAY-1
  6
CONTINUOUS
 62
     3
100
AcDbLine
 10
180.7179376972501
 20
78.00000000000027
 30
0.0
 11
178.7481496972502
 21
79.13726800000026
 31
0.0
  0
ARC
  5
1A0
330
1F
100
AcDbEntity
  8
LAY-1
  6
CONTINUOUS
 62
     3
100
AcDbCircle
 10
180.6320606972501
 20
84.26986700000029
 30
0.0
 40
6.271714
100
AcDbArc
 50
270.7846855482746
 51
305.0556976977889
  0
LINE
  5
1A1
330
1F
100
AcDbEntity
  8
LAY-1
  6
CONTINUOUS
 62
     3
100
AcDbLine
 10
200.6876636972501
 20
86.00000000000027
 30
0.0
 11
200.6876946972501
 21
79.13726800000028
 31
0.0
  0
LINE
  5
1A2
330
1F
100
AcDbEntity
  8
LAY-1
  6
CONTINUOUS
 62
     3
100
AcDbLine
 10
195.20267869725
 20
85.99993900000031
 30
0.0
 11
195.2027096972501
 21
79.13726800000028
 31
0.0
  0
LINE
  5
1A3
330
1F
100
AcDbEntity
  8
LAY-1
  6
CONTINUOUS
 62
     3
100
AcDbLine
 10
184.2331656972501
 20
85.99993900000031
 30
0.0
 11
184.2331806972501
 21
79.13726800000028
 31
0.0
  0
LINE
  5
1A4
330
1F
100
AcDbEntity
  8
LAY-1
  6
CONTINUOUS
 62
     3
100
AcDbLine
 10
178.7481656972501
 20
86.00000000000026
 30
0.0
 11
178.7481806972501
 21
79.13726800000026
 31
0.0
  0
ARC
  5
1A5
330
1F
100
AcDbEntity
  8
LAY-1
  6
CONTINUOUS
 62
     3
100
AcDbCircle
 10
191.4999999999998
 20
81.00000000000027
 30
0.0
 40
4.0
100
AcDbArc
 50
228.5903778907291
 51
311.409622109271
  0
LINE
  5
1A6
330
1F
100
AcDbEntity
  8
LAY-1
  6
CONTINUOUS
 62
     3
100
AcDbLine
 10
259.0000000000001
 20
86.00000000000031
 30
0.0
 11
248.2500000000001
 21
86.0000000000003
 31
0.0
  0
LINE
  5
1A7
330
1F
100
AcDbEntity
  8
LAY-1
  6
CONTINUOUS
 62
     3
100
AcDbLine
 10
248.2500000000001
 20
89.00000000000007
 30
0.0
 11
248.2500000000001
 21
86.0000000000003
 31
0.0
  0
LINE
  5
1A8
330
1F
100
AcDbEntity
  8
LAY-1
  6
CONTINUOUS
 62
     3
100
AcDbLine
 10
259.0000000000001
 20
86.00000000000031
 30
0.0
 11
269.7500000000001
 21
86.00000000000031
 31
0.0
  0
LINE
  5
1A9
330
1F
100
AcDbEntity
  8
LAY-1
  6
CONTINUOUS
 62
     3
100
AcDbLine
 10
269.7500000000001
 20
89.00000000000009
 30
0.0
 11
269.7500000000001
 21
86.00000000000031
 31
0.0
  0
LINE
  5
1AA
330
1F
100
AcDbEntity
  8
LAY-1
  6
CONTINUOUS
 62
     3
100
AcDbLine
 10
269.9696960000001
 20
86.00000000000031
 30
0.0
 11
248.0303040000001
 21
86.0000000000003
 31
0.0
  0
LINE
  5
1AB
330
1F
100
AcDbEntity
  8
LAY-1
  6
CONTINUOUS
 62
     3
100
AcDbLine
 10
249.99997
 20
78.0000000000003
 30
0.0
 11
267.99997
 21
78.00000000000031
 31
0.0
  0
LINE
  5
1AC
330
1F
100
AcDbEntity
  8
LAY-1
  6
CONTINUOUS
 62
     3
100
AcDbLine
 10
267.99997
 20
78.00000000000031
 30
0.0
 11
269.9697580000001
 21
79.13726800000032
 31
0.0
  0
ARC
  5
1AD
330
1F
100
AcDbEntity
  8
LAY-1
  6
CONTINUOUS
 62
     3
100
AcDbCircle
 10
258.9993600000001
 20
91.79477000000034
 30
0.0
 40
13.794775
100
AcDbArc
 50
246.5742569235564
 51
293.4304589304576
  0
ARC
  5
1AE
330
1F
100
AcDbEntity
  8
LAY-1
  6
CONTINUOUS
 62
     3
100
AcDbCircle
 10
268.0858460000001
 20
84.26986700000035
 30
0.0
 40
6.271714
100
AcDbArc
 50
234.9443023022114
 51
269.2153144517258
  0
LINE
  5
1AF
330
1F
100
AcDbEntity
  8
LAY-1
  6
CONTINUOUS
 62
     3
100
AcDbLine
 10
249.99997
 20
78.0000000000003
 30
0.0
 11
248.0301820000001
 21
79.1372680000003
 31
0.0
  0
ARC
  5
1B0
330
1F
100
AcDbEntity
  8
LAY-1
  6
CONTINUOUS
 62
     3
100
AcDbCircle
 10
249.914093
 20
84.26986700000033
 30
0.0
 40
6.271714
100
AcDbArc
 50
270.7846855482746
 51
305.0556976977889
  0
LINE
  5
1B1
330
1F
100
AcDbEntity
  8
LAY-1
  6
CONTINUOUS
 62
     3
100
AcDbLine
 10
269.9696960000001
 20
86.00000000000031
 30
0.0
 11
269.9697270000001
 21
79.13726800000032
 31
0.0
  0
LINE
  5
1B2
330
1F
100
AcDbEntity
  8
LAY-1
  6
CONTINUOUS
 62
     3
100
AcDbLine
 10
264.484711
 20
85.99993900000035
 30
0.0
 11
264.484742
 21
79.13726800000032
 31
0.0
  0
LINE
  5
1B3
330
1F
100
AcDbEntity
  8
LAY-1
  6
CONTINUOUS
 62
     3
100
AcDbLine
 10
253.5151980000001
 20
85.99993900000034
 30
0.0
 11
253.5152130000001
 21
79.1372680000003
 31
0.0
  0
LINE
  5
1B4
330
1F
100
AcDbEntity
  8
LAY-1
  6
CONTINUOUS
 62
     3
100
AcDbLine
 10
248.0301980000001
 20
86.0000000000003
 30
0.0
 11
248.0302130000001
 21
79.1372680000003
 31
0.0
  0
LINE
  5
1B5
330
1F
100
AcDbEntity
  8
LAY-1
  6
CONTINUOUS
 62
     3
100
AcDbLine
 10
328.2820323027501
 20
86.00000000000034
 30
0.0
 11
317.5320323027501
 21
86.00000000000034
 31
0.0
  0
LINE
  5
1B6
330
1F
100
AcDbEntity
  8
LAY-1
  6
CONTINUOUS
 62
     3
100
AcDbLine
 10
317.5320323027501
 20
89.00000000000011
 30
0.0
 11
317.5320323027501
 21
86.00000000000034
 31
0.0
  0
LINE
  5
1B7
330
1F
100
AcDbEntity
  8
LAY-1
  6
CONTINUOUS
 62
     3
100
AcDbLine
 10
328.2820323027501
 20
86.00000000000034
 30
0.0
 11
339.0320323027501
 21
86.00000000000036
 31
0.0
  0
LINE
  5
1B8
330
1F
100
AcDbEntity
  8
LAY-1
  6
CONTINUOUS
 62
     3
100
AcDbLine
 10
339.0320323027501
 20
89.00000000000013
 30
0.0
 11
339.0320323027501
 21
86.00000000000036
 31
0.0
  0
LINE
  5
1B9
330
1F
100
AcDbEntity
  8
LAY-1
  6
CONTINUOUS
 62
     3
100
AcDbLine
 10
339.2517283027501
 20
86.00000000000036
 30
0.0
 11
317.3123363027501
 21
86.00000000000034
 31
0.0
  0
LINE
  5
1BA
330
1F
100
AcDbEntity
  8
LAY-1
  6
CONTINUOUS
 62
     3
100
AcDbLine
 10
319.28200230275
 20
78.00000000000034
 30
0.0
 11
337.28200230275
 21
78.00000000000036
 31
0.0
  0
LINE
  5
1BB
330
1F
100
AcDbEntity
  8
LAY-1
  6
CONTINUOUS
 62
     3
100
AcDbLine
 10
337.28200230275
 20
78.00000000000036
 30
0.0
 11
339.2517903027501
 21
79.13726800000036
 31
0.0
  0
ARC
  5
1BC
330
1F
100
AcDbEntity
  8
LAY-1
  6
CONTINUOUS
 62
     3
100
AcDbCircle
 10
328.2813923027501
 20
91.79477000000037
 30
0.0
 40
13.794775
100
AcDbArc
 50
246.5742569235564
 51
293.4304589304576
  0
ARC
  5
1BD
330
1F
100
AcDbEntity
  8
LAY-1
  6
CONTINUOUS
 62
     3
100
AcDbCircle
 10
337.3678783027501
 20
84.26986700000039
 30
0.0
 40
6.271714
100
AcDbArc
 50
234.9443023022114
 51
269.2153144517258
  0
LINE
  5
1BE
330
1F
100
AcDbEntity
  8
LAY-1
  6
CONTINUOUS
 62
     3
100
AcDbLine
 10
319.28200230275
 20
78.00000000000034
 30
0.0
 11
317.3122143027501
 21
79.13726800000035
 31
0.0
  0
ARC
  5
1BF
330
1F
100
AcDbEntity
  8
LAY-1
  6
CONTINUOUS
 62
     3
100
AcDbCircle
 10
319.19612530275
 20
84.26986700000037
 30
0.0
 40
6.271714
100
AcDbArc
 50
270.7846855482745
 51
305.0556976977887
  0
LINE
  5
1C0
330
1F
100
AcDbEntity
  8
LAY-1
  6
CONTINUOUS
 62
     3
100
AcDbLine
 10
339.2517283027501
 20
86.00000000000036
 30
0.0
 11
339.2517593027501
 21
79.13726800000036
 31
0.0
  0
LINE
  5
1C1
330
1F
100
AcDbEntity
  8
LAY-1
  6
CONTINUOUS
 62
     3
100
AcDbLine
 10
333.76674330275
 20
85.9999390000004
 30
0.0
 11
333.76677430275
 21
79.13726800000036
 31
0.0
  0
LINE
  5
1C2
330
1F
100
AcDbEntity
  8
LAY-1
  6
CONTINUOUS
 62
     3
100
AcDbLine
 10
322.7972303027501
 20
85.99993900000038
 30
0.0
 11
322.7972453027501
 21
79.13726800000035
 31
0.0
  0
LINE
  5
1C3
330
1F
100
AcDbEntity
  8
LAY-1
  6
CONTINUOUS
 62
     3
100
AcDbLine
 10
317.3122303027501
 20
86.00000000000034
 30
0.0
 11
317.3122453027501
 21
79.13726800000035
 31
0.0
  0
ARC
  5
1C4
330
1F
100
AcDbEntity
  8
LAY-1
  6
CONTINUOUS
 62
     3
100
AcDbCircle
 10
326.4999999999997
 20
81.00000000000034
 30
0.0
 40
4.0
100
AcDbArc
 50
228.5903778907291
 51
311.409622109271
  0
LINE
  5
1C5
330
1F
100
AcDbEntity
  8
LAY-1
  6
CONTINUOUS
 62
     3
100
AcDbLine
 10
351.5000000000001
 20
89.00000000000036
 30
0.0
 11
351.5
 21
107.0000000000004
 31
0.0
  0
LINE
  5
1C6
330
1F
100
AcDbEntity
  8
LAY-1
  6
CONTINUOUS
 62
     3
100
AcDbLine
 10
166.5000000000001
 20
89.00000000000026
 30
0.0
 11
351.5000000000001
 21
89.00000000000036
 31
0.0
  0
LINE
  5
1C7
330
1F
100
AcDbEntity
  8
LAY-1
  6
CONTINUOUS
 62
     3
100
AcDbLine
 10
166.5000000000001
 20
89.00000000000026
 30
0.0
 11
166.5000000000001
 21
107.0000000000003
 31
0.0
  0
LINE
  5
1C8
330
1F
100
AcDbEntity
  8
LAY-1
  6
EXLTYPE2
 62
     1
100
AcDbLine
 10
189.7179676972501
 20
73.00000000000027
 30
0.0
 11
189.7179676972501
 21
133.9999999999997
 31
0.0
  0
LINE
  5
1C9
330
1F
100
AcDbEntity
  8
LAY-1
  6
EXLTYPE2
 62
     1
100
AcDbLine
 10
328.2820323027498
 20
73.00000000000034
 30
0.0
 11
328.2820323027497
 21
133.9999999999998
 31
0.0
  0
LINE
  5
1CA
330
1F
100
AcDbEntity
  8
LAY-1
  6
CONTINUOUS
 62
     1
100
AcDbLine
 10
184.6649586972501
 20
107.0000000000003
 30
0.0
 11
184.6649586972501
 21
118.0
 31
0.0
  0
LINE
  5
1CB
330
1F
100
AcDbEntity
  8
LAY-1
  6
CONTINUOUS
 62
     3
100
AcDbLine
 10
183.71793769725
 20
107.0000000000003
 30
0.0
 11
183.71793769725
 21
118.0
 31
0.0
  0
LINE
  5
1CC
330
1F
100
AcDbEntity
  8
LAY-1
  6
CONTINUOUS
 62
     1
100
AcDbLine
 10
194.7709156972501
 20
107.0000000000003
 30
0.0
 11
194.7709156972501
 21
118.0
 31
0.0
  0
LINE
  5
1CD
330
1F
100
AcDbEntity
  8
LAY-1
  6
CONTINUOUS
 62
     3
100
AcDbLine
 10
195.71793769725
 20
107.0000000000003
 30
0.0
 11
195.71793769725
 21
118.0
 31
0.0
  0
LINE
  5
1CE
330
1F
100
AcDbEntity
  8
LAY-1
  6
CONTINUOUS
 62
     1
100
AcDbLine
 10
323.2290233027501
 20
107.0000000000003
 30
0.0
 11
323.2290233027501
 21
118.0000000000001
 31
0.0
  0
LINE
  5
1CF
330
1F
100
AcDbEntity
  8
LAY-1
  6
CONTINUOUS
 62
     3
100
AcDbLine
 10
322.28200230275
 20
107.0000000000003
 30
0.0
 11
322.28200230275
 21
118.0000000000001
 31
0.0
  0
LINE
  5
1D0
330
1F
100
AcDbEntity
  8
LAY-1
  6
CONTINUOUS
 62
     1
100
AcDbLine
 10
333.3349803027501
 20
107.0000000000003
 30
0.0
 11
333.3349803027501
 21
118.0000000000001
 31
0.0
  0
LINE
  5
1D1
330
1F
100
AcDbEntity
  8
LAY-1
  6
CONTINUOUS
 62
     3
100
AcDbLine
 10
334.28200230275
 20
107.0000000000003
 30
0.0
 11
334.28200230275
 21
118.0000000000001
 31
0.0
  0
LINE
  5
1D2
330
1F
100
AcDbEntity
  8
LAY-1
  6
CONTINUOUS
 62
     1
100
AcDbLine
 10
253.9469910000001
 20
107.0000000000003
 30
0.0
 11
253.9469910000001
 21
118.0000000000001
 31
0.0
  0
LINE
  5
1D3
330
1F
100
AcDbEntity
  8
LAY-1
  6
CONTINUOUS
 62
     3
100
AcDbLine
 10
252.99997
 20
107.0000000000003
 30
0.0
 11
252.99997
 21
118.0000000000001
 31
0.0
  0
LINE
  5
1D4
330
1F
100
AcDbEntity
  8
LAY-1
  6
CONTINUOUS
 62
     1
100
AcDbLine
 10
264.052948
 20
107.0000000000003
 30
0.0
 11
264.052948
 21
118.0000000000001
 31
0.0
  0
LINE
  5
1D5
330
1F
100
AcDbEntity
  8
LAY-1
  6
CONTINUOUS
 62
     3
100
AcDbLine
 10
264.99997
 20
107.0000000000003
 30
0.0
 11
264.99997
 21
118.0000000000001
 31
0.0
  0
LINE
  5
1D6
330
1F
100
AcDbEntity
  8
LAY-1
  6
CONTINUOUS
 62
     3
100
AcDbLine
 10
327.2820323027501
 20
88.99999999999967
 30
0.0
 11
329.2820323027501
 21
85.99999999999967
 31
0.0
  0
LINE
  5
1D7
330
1F
100
AcDbEntity
  8
LAY-1
  6
CONTINUOUS
 62
     3
100
AcDbLine
 10
258.0000000000001
 20
88.9999999999997
 30
0.0
 11
260.0000000000001
 21
85.9999999999997
 31
0.0
  0
LINE
  5
1D8
330
1F
100
AcDbEntity
  8
LAY-1
  6
CONTINUOUS
 62
     3
100
AcDbLine
 10
188.7179676972501
 20
88.99999999999973
 30
0.0
 11
190.7179676972501
 21
85.99999999999973
 31
0.0
  0
LINE
  5
1D9
330
1F
100
AcDbEntity
  8
LAY-1
  6
CONTINUOUS
 62
     3
100
AcDbLine
 10
264.4847720000002
 20
522.5000000000007
 30
0.0
 11
253.5151220000002
 21
522.5000000000007
 31
0.0
  0
LINE
  5
1DA
330
1F
100
AcDbEntity
  8
LAY-1
  6
CONTINUOUS
 62
     3
100
AcDbLine
 10
253.5152440000002
 20
503.5000000000007
 30
0.0
 11
264.4847720000003
 21
503.5000000000007
 31
0.0
  0
LINE
  5
1DB
330
1F
100
AcDbEntity
  8
LAY-1
  6
CONTINUOUS
 62
     3
100
AcDbLine
 10
269.9697580000002
 20
513.0000610000008
 30
0.0
 11
264.4847720000003
 21
503.5000000000007
 31
0.0
  0
LINE
  5
1DC
330
1F
100
AcDbEntity
  8
LAY-1
  6
CONTINUOUS
 62
     3
100
AcDbLine
 10
269.9697580000002
 20
513.0000610000008
 30
0.0
 11
264.4847720000002
 21
522.5000610000008
 31
0.0
  0
LINE
  5
1DD
330
1F
100
AcDbEntity
  8
LAY-1
  6
CONTINUOUS
 62
     3
100
AcDbLine
 10
253.5151220000002
 20
522.5000610000006
 30
0.0
 11
248.0302430000002
 21
513.0000000000007
 31
0.0
  0
LINE
  5
1DE
330
1F
100
AcDbEntity
  8
LAY-1
  6
CONTINUOUS
 62
     3
100
AcDbLine
 10
248.0303500000002
 20
513.0000000000007
 30
0.0
 11
253.5152440000002
 21
503.5000000000007
 31
0.0
  0
CIRCLE
  5
1DF
330
1F
100
AcDbEntity
  8
LAY-1
  6
CONTINUOUS
 62
     3
100
AcDbCircle
 10
259.0000000000002
 20
513.0000000000007
 30
0.0
 40
9.0
  0
ARC
  5
1E0
330
1F
100
AcDbEntity
  8
LAY-1
  6
CONTINUOUS
 62
     3
100
AcDbCircle
 10
259.0000000000003
 20
513.0000000000007
 30
0.0
 40
10.75
100
AcDbArc
 50
242.0945272089269
 51
297.9054727910738
  0
ARC
  5
1E1
330
1F
100
AcDbEntity
  8
LAY-1
  6
CONTINUOUS
 62
     3
100
AcDbCircle
 10
259.0000000000003
 20
513.0000000000007
 30
0.0
 40
10.75
100
AcDbArc
 50
302.0940295353584
 51
357.9048557042461
  0
ARC
  5
1E2
330
1F
100
AcDbEntity
  8
LAY-1
  6
CONTINUOUS
 62
     3
100
AcDbCircle
 10
259.0000000000003
 20
513.0000000000007
 30
0.0
 40
10.75
100
AcDbArc
 50
2.09582462473435
 51
57.90560874879695
  0
ARC
  5
1E3
330
1F
100
AcDbEntity
  8
LAY-1
  6
CONTINUOUS
 62
     3
100
AcDbCircle
 10
259.0000000000003
 20
513.0000000000007
 30
0.0
 40
10.75
100
AcDbArc
 50
62.09452720892694
 51
117.9054727910737
  0
ARC
  5
1E4
330
1F
100
AcDbEntity
  8
LAY-1
  6
CONTINUOUS
 62
     3
100
AcDbCircle
 10
259.0000000000003
 20
513.0000000000007
 30
0.0
 40
10.75
100
AcDbArc
 50
122.0953786707207
 51
177.9044745536329
  0
ARC
  5
1E5
330
1F
100
AcDbEntity
  8
LAY-1
  6
CONTINUOUS
 62
     3
100
AcDbCircle
 10
259.0000000000003
 20
513.0000000000007
 30
0.0
 40
10.75
100
AcDbArc
 50
182.0944496664564
 51
237.9061514190196
  0
LINE
  5
1E6
330
1F
100
AcDbEntity
  8
LAY-1
  6
CONTINUOUS
 62
     3
100
AcDbLine
 10
333.7668043027502
 20
482.5000000000007
 30
0.0
 11
322.7971543027502
 21
482.5000000000007
 31
0.0
  0
LINE
  5
1E7
330
1F
100
AcDbEntity
  8
LAY-1
  6
CONTINUOUS
 62
     3
100
AcDbLine
 10
322.7972763027502
 20
463.5000000000007
 30
0.0
 11
333.7668043027503
 21
463.5000000000007
 31
0.0
  0
LINE
  5
1E8
330
1F
100
AcDbEntity
  8
LAY-1
  6
CONTINUOUS
 62
     3
100
AcDbLine
 10
339.2517903027502
 20
473.0000610000008
 30
0.0
 11
333.7668043027503
 21
463.5000000000007
 31
0.0
  0
LINE
  5
1E9
330
1F
100
AcDbEntity
  8
LAY-1
  6
CONTINUOUS
 62
     3
100
AcDbLine
 10
339.2517903027502
 20
473.0000610000008
 30
0.0
 11
333.7668043027502
 21
482.5000610000008
 31
0.0
  0
LINE
  5
1EA
330
1F
100
AcDbEntity
  8
LAY-1
  6
CONTINUOUS
 62
     3
100
AcDbLine
 10
322.7971543027502
 20
482.5000610000007
 30
0.0
 11
317.3122753027502
 21
473.0000000000006
 31
0.0
  0
LINE
  5
1EB
330
1F
100
AcDbEntity
  8
LAY-1
  6
CONTINUOUS
 62
     3
100
AcDbLine
 10
317.3123823027502
 20
473.0000000000006
 30
0.0
 11
322.7972763027502
 21
463.5000000000007
 31
0.0
  0
CIRCLE
  5
1EC
330
1F
100
AcDbEntity
  8
LAY-1
  6
CONTINUOUS
 62
     3
100
AcDbCircle
 10
328.2820323027502
 20
473.0000000000007
 30
0.0
 40
9.0
  0
ARC
  5
1ED
330
1F
100
AcDbEntity
  8
LAY-1
  6
CONTINUOUS
 62
     3
100
AcDbCircle
 10
328.2820323027503
 20
473.0000000000007
 30
0.0
 40
10.75
100
AcDbArc
 50
242.0945272089269
 51
297.9054727910738
  0
ARC
  5
1EE
330
1F
100
AcDbEntity
  8
LAY-1
  6
CONTINUOUS
 62
     3
100
AcDbCircle
 10
328.2820323027503
 20
473.0000000000007
 30
0.0
 40
10.75
100
AcDbArc
 50
302.0940295353584
 51
357.9048557042461
  0
ARC
  5
1EF
330
1F
100
AcDbEntity
  8
LAY-1
  6
CONTINUOUS
 62
     3
100
AcDbCircle
 10
328.2820323027503
 20
473.0000000000007
 30
0.0
 40
10.75
100
AcDbArc
 50
2.09582462473435
 51
57.90560874879695
  0
ARC
  5
1F0
330
1F
100
AcDbEntity
  8
LAY-1
  6
CONTINUOUS
 62
     3
100
AcDbCircle
 10
328.2820323027503
 20
473.0000000000007
 30
0.0
 40
10.75
100
AcDbArc
 50
62.09452720892694
 51
117.9054727910737
  0
ARC
  5
1F1
330
1F
100
AcDbEntity
  8
LAY-1
  6
CONTINUOUS
 62
     3
100
AcDbCircle
 10
328.2820323027503
 20
473.0000000000007
 30
0.0
 40
10.75
100
AcDbArc
 50
122.0953786707207
 51
177.9044745536329
  0
ARC
  5
1F2
330
1F
100
AcDbEntity
  8
LAY-1
  6
CONTINUOUS
 62
     3
100
AcDbCircle
 10
328.2820323027503
 20
473.0000000000007
 30
0.0
 40
10.75
100
AcDbArc
 50
182.0944496664564
 51
237.9061514190196
  0
LINE
  5
1F3
330
1F
100
AcDbEntity
  8
LAY-1
  6
CONTINUOUS
 62
     3
100
AcDbLine
 10
333.7668043027501
 20
402.5000000000007
 30
0.0
 11
322.7971543027501
 21
402.5000000000007
 31
0.0
  0
LINE
  5
1F4
330
1F
100
AcDbEntity
  8
LAY-1
  6
CONTINUOUS
 62
     3
100
AcDbLine
 10
322.7972763027502
 20
383.5000000000007
 30
0.0
 11
333.7668043027502
 21
383.5000000000007
 31
0.0
  0
LINE
  5
1F5
330
1F
100
AcDbEntity
  8
LAY-1
  6
CONTINUOUS
 62
     3
100
AcDbLine
 10
339.2517903027502
 20
393.0000610000008
 30
0.0
 11
333.7668043027502
 21
383.5000000000007
 31
0.0
  0
LINE
  5
1F6
330
1F
100
AcDbEntity
  8
LAY-1
  6
CONTINUOUS
 62
     3
100
AcDbLine
 10
339.2517903027502
 20
393.0000610000008
 30
0.0
 11
333.7668043027501
 21
402.5000610000008
 31
0.0
  0
LINE
  5
1F7
330
1F
100
AcDbEntity
  8
LAY-1
  6
CONTINUOUS
 62
     3
100
AcDbLine
 10
322.7971543027501
 20
402.5000610000007
 30
0.0
 11
317.3122753027502
 21
393.0000000000006
 31
0.0
  0
LINE
  5
1F8
330
1F
100
AcDbEntity
  8
LAY-1
  6
CONTINUOUS
 62
     3
100
AcDbLine
 10
317.3123823027501
 20
393.0000000000006
 30
0.0
 11
322.7972763027502
 21
383.5000000000007
 31
0.0
  0
CIRCLE
  5
1F9
330
1F
100
AcDbEntity
  8
LAY-1
  6
CONTINUOUS
 62
     3
100
AcDbCircle
 10
328.2820323027501
 20
393.0000000000007
 30
0.0
 40
9.0
  0
ARC
  5
1FA
330
1F
100
AcDbEntity
  8
LAY-1
  6
CONTINUOUS
 62
     3
100
AcDbCircle
 10
328.2820323027502
 20
393.0000000000007
 30
0.0
 40
10.75
100
AcDbArc
 50
242.0945272089269
 51
297.9054727910738
  0
ARC
  5
1FB
330
1F
100
AcDbEntity
  8
LAY-1
  6
CONTINUOUS
 62
     3
100
AcDbCircle
 10
328.2820323027502
 20
393.0000000000007
 30
0.0
 40
10.75
100
AcDbArc
 50
302.0940295353584
 51
357.9048557042461
  0
ARC
  5
1FC
330
1F
100
AcDbEntity
  8
LAY-1
  6
CONTINUOUS
 62
     3
100
AcDbCircle
 10
328.2820323027502
 20
393.0000000000007
 30
0.0
 40
10.75
100
AcDbArc
 50
2.09582462473435
 51
57.90560874879695
  0
ARC
  5
1FD
330
1F
100
AcDbEntity
  8
LAY-1
  6
CONTINUOUS
 62
     3
100
AcDbCircle
 10
328.2820323027502
 20
393.0000000000007
 30
0.0
 40
10.75
100
AcDbArc
 50
62.09452720892694
 51
117.9054727910737
  0
ARC
  5
1FE
330
1F
100
AcDbEntity
  8
LAY-1
  6
CONTINUOUS
 62
     3
100
AcDbCircle
 10
328.2820323027502
 20
393.0000000000007
 30
0.0
 40
10.75
100
AcDbArc
 50
122.0953786707207
 51
177.9044745536329
  0
ARC
  5
1FF
330
1F
100
AcDbEntity
  8
LAY-1
  6
CONTINUOUS
 62
     3
100
AcDbCircle
 10
328.2820323027502
 20
393.0000000000007
 30
0.0
 40
10.75
100
AcDbArc
 50
182.0944496664564
 51
237.9061514190196
  0
LINE
  5
200
330
1F
100
AcDbEntity
  8
LAY-1
  6
CONTINUOUS
 62
     3
100
AcDbLine
 10
195.2027396972502
 20
402.5000000000007
 30
0.0
 11
184.2330896972502
 21
402.5000000000007
 31
0.0
  0
LINE
  5
201
330
1F
100
AcDbEntity
  8
LAY-1
  6
CONTINUOUS
 62
     3
100
AcDbLine
 10
184.2332116972502
 20
383.5000000000007
 30
0.0
 11
195.2027396972503
 21
383.5000000000007
 31
0.0
  0
LINE
  5
202
330
1F
100
AcDbEntity
  8
LAY-1
  6
CONTINUOUS
 62
     3
100
AcDbLine
 10
200.6877256972502
 20
393.0000610000008
 30
0.0
 11
195.2027396972503
 21
383.5000000000007
 31
0.0
  0
LINE
  5
203
330
1F
100
AcDbEntity
  8
LAY-1
  6
CONTINUOUS
 62
     3
100
AcDbLine
 10
200.6877256972502
 20
393.0000610000008
 30
0.0
 11
195.2027396972502
 21
402.5000610000008
 31
0.0
  0
LINE
  5
204
330
1F
100
AcDbEntity
  8
LAY-1
  6
CONTINUOUS
 62
     3
100
AcDbLine
 10
184.2330896972502
 20
402.5000610000007
 30
0.0
 11
178.7482106972502
 21
393.0000000000006
 31
0.0
  0
LINE
  5
205
330
1F
100
AcDbEntity
  8
LAY-1
  6
CONTINUOUS
 62
     3
100
AcDbLine
 10
178.7483176972501
 20
393.0000000000006
 30
0.0
 11
184.2332116972502
 21
383.5000000000007
 31
0.0
  0
CIRCLE
  5
206
330
1F
100
AcDbEntity
  8
LAY-1
  6
CONTINUOUS
 62
     3
100
AcDbCircle
 10
189.7179676972501
 20
393.0000000000007
 30
0.0
 40
9.0
  0
ARC
  5
207
330
1F
100
AcDbEntity
  8
LAY-1
  6
CONTINUOUS
 62
     3
100
AcDbCircle
 10
189.7179676972503
 20
393.0000000000007
 30
0.0
 40
10.75
100
AcDbArc
 50
242.0945272089269
 51
297.9054727910738
  0
ARC
  5
208
330
1F
100
AcDbEntity
  8
LAY-1
  6
CONTINUOUS
 62
     3
100
AcDbCircle
 10
189.7179676972503
 20
393.0000000000007
 30
0.0
 40
10.75
100
AcDbArc
 50
302.0940295353584
 51
357.9048557042461
  0
ARC
  5
209
330
1F
100
AcDbEntity
  8
LAY-1
  6
CONTINUOUS
 62
     3
100
AcDbCircle
 10
189.7179676972503
 20
393.0000000000007
 30
0.0
 40
10.75
100
AcDbArc
 50
2.09582462473435
 51
57.90560874879695
  0
ARC
  5
20A
330
1F
100
AcDbEntity
  8
LAY-1
  6
CONTINUOUS
 62
     3
100
AcDbCircle
 10
189.7179676972503
 20
393.0000000000007
 30
0.0
 40
10.75
100
AcDbArc
 50
62.09452720892694
 51
117.9054727910737
  0
ARC
  5
20B
330
1F
100
AcDbEntity
  8
LAY-1
  6
CONTINUOUS
 62
     3
100
AcDbCircle
 10
189.7179676972503
 20
393.0000000000007
 30
0.0
 40
10.75
100
AcDbArc
 50
122.0953786707207
 51
177.9044745536329
  0
ARC
  5
20C
330
1F
100
AcDbEntity
  8
LAY-1
  6
CONTINUOUS
 62
     3
100
AcDbCircle
 10
189.7179676972503
 20
393.0000000000007
 30
0.0
 40
10.75
100
AcDbArc
 50
182.0944496664564
 51
237.9061514190196
  0
LINE
  5
20D
330
1F
100
AcDbEntity
  8
LAY-1
  6
CONTINUOUS
 62
     3
100
AcDbLine
 10
264.4847720000001
 20
362.5000000000007
 30
0.0
 11
253.5151220000001
 21
362.5000000000007
 31
0.0
  0
LINE
  5
20E
330
1F
100
AcDbEntity
  8
LAY-1
  6
CONTINUOUS
 62
     3
100
AcDbLine
 10
253.5152440000002
 20
343.5000000000007
 30
0.0
 11
264.4847720000002
 21
343.5000000000007
 31
0.0
  0
LINE
  5
20F
330
1F
100
AcDbEntity
  8
LAY-1
  6
CONTINUOUS
 62
     3
100
AcDbLine
 10
269.9697580000002
 20
353.0000610000008
 30
0.0
 11
264.4847720000002
 21
343.5000000000007
 31
0.0
  0
LINE
  5
210
330
1F
100
AcDbEntity
  8
LAY-1
  6
CONTINUOUS
 62
     3
100
AcDbLine
 10
269.9697580000002
 20
353.0000610000008
 30
0.0
 11
264.4847720000001
 21
362.5000610000008
 31
0.0
  0
LINE
  5
211
330
1F
100
AcDbEntity
  8
LAY-1
  6
CONTINUOUS
 62
     3
100
AcDbLine
 10
253.5151220000001
 20
362.5000610000007
 30
0.0
 11
248.0302430000002
 21
353.0000000000006
 31
0.0
  0
LINE
  5
212
330
1F
100
AcDbEntity
  8
LAY-1
  6
CONTINUOUS
 62
     3
100
AcDbLine
 10
248.0303500000001
 20
353.0000000000006
 30
0.0
 11
253.5152440000002
 21
343.5000000000007
 31
0.0
  0
CIRCLE
  5
213
330
1F
100
AcDbEntity
  8
LAY-1
  6
CONTINUOUS
 62
     3
100
AcDbCircle
 10
259.0000000000001
 20
353.0000000000007
 30
0.0
 40
9.0
  0
ARC
  5
214
330
1F
100
AcDbEntity
  8
LAY-1
  6
CONTINUOUS
 62
     3
100
AcDbCircle
 10
259.0000000000002
 20
353.0000000000007
 30
0.0
 40
10.75
100
AcDbArc
 50
242.0945272089269
 51
297.9054727910738
  0
ARC
  5
215
330
1F
100
AcDbEntity
  8
LAY-1
  6
CONTINUOUS
 62
     3
100
AcDbCircle
 10
259.0000000000002
 20
353.0000000000007
 30
0.0
 40
10.75
100
AcDbArc
 50
302.0940295353584
 51
357.9048557042461
  0
ARC
  5
216
330
1F
100
AcDbEntity
  8
LAY-1
  6
CONTINUOUS
 62
     3
100
AcDbCircle
 10
259.0000000000002
 20
353.0000000000007
 30
0.0
 40
10.75
100
AcDbArc
 50
2.09582462473435
 51
57.90560874879695
  0
ARC
  5
217
330
1F
100
AcDbEntity
  8
LAY-1
  6
CONTINUOUS
 62
     3
100
AcDbCircle
 10
259.0000000000002
 20
353.0000000000007
 30
0.0
 40
10.75
100
AcDbArc
 50
62.09452720892694
 51
117.9054727910737
  0
ARC
  5
218
330
1F
100
AcDbEntity
  8
LAY-1
  6
CONTINUOUS
 62
     3
100
AcDbCircle
 10
259.0000000000002
 20
353.0000000000007
 30
0.0
 40
10.75
100
AcDbArc
 50
122.0953786707207
 51
177.9044745536329
  0
ARC
  5
219
330
1F
100
AcDbEntity
  8
LAY-1
  6
CONTINUOUS
 62
     3
100
AcDbCircle
 10
259.0000000000002
 20
353.0000000000007
 30
0.0
 40
10.75
100
AcDbArc
 50
182.0944496664564
 51
237.9061514190196
  0
LINE
  5
21A
330
1F
100
AcDbEntity
  8
LAY-1
  6
CONTINUOUS
 62
     3
100
AcDbLine
 10
195.2027396972502
 20
482.5000000000007
 30
0.0
 11
184.2330896972502
 21
482.5000000000007
 31
0.0
  0
LINE
  5
21B
330
1F
100
AcDbEntity
  8
LAY-1
  6
CONTINUOUS
 62
     3
100
AcDbLine
 10
184.2332116972502
 20
463.5000000000007
 30
0.0
 11
195.2027396972503
 21
463.5000000000007
 31
0.0
  0
LINE
  5
21C
330
1F
100
AcDbEntity
  8
LAY-1
  6
CONTINUOUS
 62
     3
100
AcDbLine
 10
200.6877256972502
 20
473.0000610000008
 30
0.0
 11
195.2027396972503
 21
463.5000000000007
 31
0.0
  0
LINE
  5
21D
330
1F
100
AcDbEntity
  8
LAY-1
  6
CONTINUOUS
 62
     3
100
AcDbLine
 10
200.6877256972502
 20
473.0000610000008
 30
0.0
 11
195.2027396972502
 21
482.5000610000008
 31
0.0
  0
LINE
  5
21E
330
1F
100
AcDbEntity
  8
LAY-1
  6
CONTINUOUS
 62
     3
100
AcDbLine
 10
184.2330896972502
 20
482.5000610000007
 30
0.0
 11
178.7482106972502
 21
473.0000000000006
 31
0.0
  0
LINE
  5
21F
330
1F
100
AcDbEntity
  8
LAY-1
  6
CONTINUOUS
 62
     3
100
AcDbLine
 10
178.7483176972501
 20
473.0000000000006
 30
0.0
 11
184.2332116972502
 21
463.5000000000007
 31
0.0
  0
CIRCLE
  5
220
330
1F
100
AcDbEntity
  8
LAY-1
  6
CONTINUOUS
 62
     3
100
AcDbCircle
 10
189.7179676972501
 20
473.0000000000007
 30
0.0
 40
9.0
  0
ARC
  5
221
330
1F
100
AcDbEntity
  8
LAY-1
  6
CONTINUOUS
 62
     3
100
AcDbCircle
 10
189.7179676972503
 20
473.0000000000007
 30
0.0
 40
10.75
100
AcDbArc
 50
242.0945272089269
 51
297.9054727910738
  0
ARC
  5
222
330
1F
100
AcDbEntity
  8
LAY-1
  6
CONTINUOUS
 62
     3
100
AcDbCircle
 10
189.7179676972503
 20
473.0000000000007
 30
0.0
 40
10.75
100
AcDbArc
 50
302.0940295353584
 51
357.9048557042461
  0
ARC
  5
223
330
1F
100
AcDbEntity
  8
LAY-1
  6
CONTINUOUS
 62
     3
100
AcDbCircle
 10
189.7179676972503
 20
473.0000000000007
 30
0.0
 40
10.75
100
AcDbArc
 50
2.09582462473435
 51
57.90560874879695
  0
ARC
  5
224
330
1F
100
AcDbEntity
  8
LAY-1
  6
CONTINUOUS
 62
     3
100
AcDbCircle
 10
189.7179676972503
 20
473.0000000000007
 30
0.0
 40
10.75
100
AcDbArc
 50
62.09452720892694
 51
117.9054727910737
  0
ARC
  5
225
330
1F
100
AcDbEntity
  8
LAY-1
  6
CONTINUOUS
 62
     3
100
AcDbCircle
 10
189.7179676972503
 20
473.0000000000007
 30
0.0
 40
10.75
100
AcDbArc
 50
122.0953786707207
 51
177.9044745536329
  0
ARC
  5
226
330
1F
100
AcDbEntity
  8
LAY-1
  6
CONTINUOUS
 62
     3
100
AcDbCircle
 10
189.7179676972503
 20
473.0000000000007
 30
0.0
 40
10.75
100
AcDbArc
 50
182.0944496664564
 51
237.9061514190196
  0
ARC
  5
227
330
1F
100
AcDbEntity
  8
LAY-1
  6
EXLTYPE2
 62
     1
100
AcDbCircle
 10
259.0
 20
433.0
 30
0.0
 40
80.0
100
AcDbArc
 50
76.8424572599852
 51
102.6086067933663
  0
ARC
  5
228
330
1F
100
AcDbEntity
  8
LAY-1
  6
EXLTYPE2
 62
     1
100
AcDbCircle
 10
259.0
 20
433.0
 30
0.0
 40
80.0
100
AcDbArc
 50
137.0454084888872
 51
163.1625273743236
  0
ARC
  5
229
330
1F
100
AcDbEntity
  8
LAY-1
  6
EXLTYPE2
 62
     1
100
AcDbCircle
 10
259.0
 20
433.0
 30
0.0
 40
80.0
100
AcDbArc
 50
256.5042667192042
 51
284.0362434679266
  0
ARC
  5
22A
330
1F
100
AcDbEntity
  8
LAY-1
  6
EXLTYPE2
 62
     1
100
AcDbCircle
 10
259.0
 20
433.0
 30
0.0
 40
80.0
100
AcDbArc
 50
196.5570713756366
 51
224.0122396003601
  0
ARC
  5
22B
330
1F
100
AcDbEntity
  8
LAY-1
  6
EXLTYPE2
 62
     1
100
AcDbCircle
 10
259.0
 20
433.0
 30
0.0
 40
80.0
100
AcDbArc
 50
315.9877603996399
 51
344.4384896746715
  0
ARC
  5
22C
330
1F
100
AcDbEntity
  8
LAY-1
  6
EXLTYPE2
 62
     1
100
AcDbCircle
 10
259.0
 20
433.0
 30
0.0
 40
80.0
100
AcDbArc
 50
16.2323506611562
 51
44.50178838738637
  0
LINE
  5
22D
330
1F
100
AcDbEntity
  8
LAY-1
  6
EXLTYPE2
 62
     1
100
AcDbLine
 10
259.0000000000001
 20
533.0
 30
0.0
 11
259.0000000000001
 21
331.0
 31
0.0
  0
LINE
  5
22E
330
1F
100
AcDbEntity
  8
LAY-1
  6
EXLTYPE2
 62
     1
100
AcDbLine
 10
115.0
 20
433.0000000000002
 30
0.0
 11
402.0
 21
433.0000000000003
 31
0.0
  0
LINE
  5
22F
330
1F
100
AcDbEntity
  8
LAY-1
  6
EXLTYPE2
 62
     1
100
AcDbLine
 10
236.0000000000002
 20
476.0000000000002
 30
0.0
 11
226.0
 21
476.0000000000002
 31
0.0
  0
LINE
  5
230
330
1F
100
AcDbEntity
  8
LAY-1
  6
EXLTYPE2
 62
     1
100
AcDbLine
 10
230.9999999999999
 20
471.0
 30
0.0
 11
230.9999999999999
 21
481.0
 31
0.0
  0
CIRCLE
  5
231
330
1F
100
AcDbEntity
  8
LAY-1
  6
CONTINUOUS
 62
     3
100
AcDbCircle
 10
596.0
 20
171.0
 30
0.0
 40
32.5
  0
CIRCLE
  5
232
330
1F
100
AcDbEntity
  8
LAY-1
  6
CONTINUOUS
 62
     3
100
AcDbCircle
 10
596.0
 20
171.0
 30
0.0
 40
58.0
  0
CIRCLE
  5
233
330
1F
100
AcDbEntity
  8
LAY-1
  6
CONTINUOUS
 62
     3
100
AcDbCircle
 10
596.0
 20
171.0
 30
0.0
 40
87.5
  0
CIRCLE
  5
234
330
1F
100
AcDbEntity
  8
LAY-1
  6
EXLTYPE2
 62
     1
100
AcDbCircle
 10
596.0
 20
171.0
 30
0.0
 40
70.0
  0
CIRCLE
  5
235
330
1F
100
AcDbEntity
  8
LAY-1
  6
CONTINUOUS
 62
     3
100
AcDbCircle
 10
645.49747468305
 20
220.49747468306
 30
0.0
 40
9.5
  0
LINE
  5
236
330
1F
100
AcDbEntity
  8
LAY-1
  6
EXLTYPE2
 62
     1
100
AcDbLine
 10
637.0121933088164
 20
212.0121933088231
 30
0.0
 11
655.4999999999967
 21
230.5000000000033
 31
0.0
  0
CIRCLE
  5
237
330
1F
100
AcDbEntity
  8
LAY-1
  6
CONTINUOUS
 62
     3
100
AcDbCircle
 10
546.50252531695
 20
220.49747468306
 30
0.0
 40
9.5
  0
LINE
  5
238
330
1F
100
AcDbEntity
  8
LAY-1
  6
EXLTYPE2
 62
     1
100
AcDbLine
 10
554.9878066911836
 20
212.0121933088231
 30
0.0
 11
536.5000000000033
 21
230.5000000000034
 31
0.0
  0
LINE
  5
239
330
1F
100
AcDbEntity
  8
LAY-1
  6
EXLTYPE2
 62
     1
100
AcDbLine
 10
596.0
 20
264.0
 30
0.0
 11
596.0
 21
77.0
 31
0.0
  0
LINE
  5
23A
330
1F
100
AcDbEntity
  8
LAY-1
  6
EXLTYPE2
 62
     1
100
AcDbLine
 10
502.0
 20
171.0
 30
0.0
 11
690.0
 21
171.0
 31
0.0
  0
LINE
  5
23B
330
1F
100
AcDbEntity
  8
LAY-1
  6
CONTINUOUS
 62
     3
100
AcDbLine
 10
688.5
 20
253.0
 30
0.0
 11
688.5
 21
235.0
 31
0.0
  0
LINE
  5
23C
330
1F
100
AcDbEntity
  8
LAY-1
  6
CONTINUOUS
 62
     3
100
AcDbLine
 10
687.9999999999999
 20
211.0
 30
0.0
 11
687.9999999999999
 21
224.0
 31
0.0
  0
ARC
  5
23D
330
1F
100
AcDbEntity
  8
LAY-1
  6
CONTINUOUS
 62
     3
100
AcDbCircle
 10
684.9999999999999
 20
211.0000000000005
 30
0.0
 40
3.0
100
AcDbArc
 50
270.0
 51
0.0
  0
LINE
  5
23E
330
1F
100
AcDbEntity
  8
LAY-1
  6
CONTINUOUS
 62
     3
100
AcDbLine
 10
503.5
 20
253.0
 30
0.0
 11
503.5
 21
235.0
 31
0.0
  0
LINE
  5
23F
330
1F
100
AcDbEntity
  8
LAY-1
  6
CONTINUOUS
 62
     3
100
AcDbLine
 10
504.0000000000003
 20
211.0000000000002
 30
0.0
 11
504.0000000000003
 21
224.0000000000003
 31
0.0
  0
ARC
  5
240
330
1F
100
AcDbEntity
  8
LAY-1
  6
CONTINUOUS
 62
     3
100
AcDbCircle
 10
507.0000000000003
 20
211.0000000000005
 30
0.0
 40
3.0
100
AcDbArc
 50
180.0
 51
270.0
  0
LINE
  5
241
330
1F
100
AcDbEntity
  8
LAY-1
  6
CONTINUOUS
 62
     3
100
AcDbLine
 10
655.6678305286861
 20
235.0
 30
0.0
 11
688.5
 21
235.0
 31
0.0
  0
LINE
  5
242
330
1F
100
AcDbEntity
  8
LAY-1
  6
CONTINUOUS
 62
     3
100
AcDbLine
 10
503.5
 20
253.0
 30
0.0
 11
565.467230718456
 21
253.0
 31
0.0
  0
LINE
  5
243
330
1F
100
AcDbEntity
  8
LAY-1
  6
CONTINUOUS
 62
     3
100
AcDbLine
 10
626.532769281544
 20
253.0
 30
0.0
 11
688.5
 21
253.0
 31
0.0
  0
LINE
  5
244
330
1F
100
AcDbEntity
  8
LAY-1
  6
CONTINUOUS
 62
     3
100
AcDbLine
 10
526.3778052629768
 20
224.0000000000002
 30
0.0
 11
503.9999999999999
 21
224.0000000000002
 31
0.0
  0
LINE
  5
245
330
1F
100
AcDbEntity
  8
LAY-1
  6
CONTINUOUS
 62
     3
100
AcDbLine
 10
687.9999999999999
 20
224.0000000000002
 30
0.0
 11
665.6221947370232
 21
224.0000000000002
 31
0.0
  0
LINE
  5
246
330
1F
100
AcDbEntity
  8
LAY-1
  6
CONTINUOUS
 62
     3
100
AcDbLine
 10
684.9999999999999
 20
208.0000000000005
 30
0.0
 11
675.292181203445
 21
208.0000000000005
 31
0.0
  0
LINE
  5
247
330
1F
100
AcDbEntity
  8
LAY-1
  6
CONTINUOUS
 62
     3
100
AcDbLine
 10
516.707818796555
 20
208.0000000000005
 30
0.0
 11
507.0000000000003
 21
208.0000000000005
 31
0.0
  0
LINE
  5
248
330
1F
100
AcDbEntity
  8
LAY-1
  6
CONTINUOUS
 62
     3
100
AcDbLine
 10
536.3321694713139
 20
235.0
 30
0.0
 11
503.5
 21
235.0
 31
0.0
  0
LINE
  5
249
330
1F
100
AcDbEntity
  8
LAY-1
  6
CONTINUOUS
 62
     3
100
AcDbLine
 10
516.0
 20
256.0
 30
0.0
 11
505.25
 21
256.0
 31
0.0
  0
LINE
  5
24A
330
1F
100
AcDbEntity
  8
LAY-1
  6
CONTINUOUS
 62
     3
100
AcDbLine
 10
505.25
 20
253.0000000000002
 30
0.0
 11
505.25
 21
256.0
 31
0.0
  0
LINE
  5
24B
330
1F
100
AcDbEntity
  8
LAY-1
  6
CONTINUOUS
 62
     3
100
AcDbLine
 10
516.0
 20
256.0
 30
0.0
 11
526.75
 21
256.0
 31
0.0
  0
LINE
  5
24C
330
1F
100
AcDbEntity
  8
LAY-1
  6
CONTINUOUS
 62
     3
100
AcDbLine
 10
526.75
 20
253.0000000000002
 30
0.0
 11
526.75
 21
256.0
 31
0.0
  0
LINE
  5
24D
330
1F
100
AcDbEntity
  8
LAY-1
  6
CONTINUOUS
 62
     3
100
AcDbLine
 10
515.0
 20
256.0
 30
0.0
 11
517.0
 21
253.0
 31
0.0
  0
LINE
  5
24E
330
1F
100
AcDbEntity
  8
LAY-1
  6
CONTINUOUS
 62
     1
100
AcDbLine
 10
510.946991
 20
235.0
 30
0.0
 11
510.946991
 21
224.0000000000002
 31
0.0
  0
LINE
  5
24F
330
1F
100
AcDbEntity
  8
LAY-1
  6
CONTINUOUS
 62
     3
100
AcDbLine
 10
509.99997
 20
235.0
 30
0.0
 11
509.99997
 21
224.0000000000002
 31
0.0
  0
LINE
  5
250
330
1F
100
AcDbEntity
  8
LAY-1
  6
CONTINUOUS
 62
     1
100
AcDbLine
 10
521.052948
 20
235.0
 30
0.0
 11
521.052948
 21
224.0000000000002
 31
0.0
  0
LINE
  5
251
330
1F
100
AcDbEntity
  8
LAY-1
  6
CONTINUOUS
 62
     3
100
AcDbLine
 10
521.99997
 20
235.0
 30
0.0
 11
521.99997
 21
224.0000000000002
 31
0.0
  0
LINE
  5
252
330
1F
100
AcDbEntity
  8
LAY-1
  6
CONTINUOUS
 62
     3
100
AcDbLine
 10
556.0
 20
256.0
 30
0.0
 11
545.25
 21
256.0
 31
0.0
  0
LINE
  5
253
330
1F
100
AcDbEntity
  8
LAY-1
  6
CONTINUOUS
 62
     3
100
AcDbLine
 10
545.25
 20
253.0000000000002
 30
0.0
 11
545.25
 21
256.0
 31
0.0
  0
LINE
  5
254
330
1F
100
AcDbEntity
  8
LAY-1
  6
CONTINUOUS
 62
     3
100
AcDbLine
 10
556.0
 20
256.0
 30
0.0
 11
566.75
 21
256.0
 31
0.0
  0
LINE
  5
255
330
1F
100
AcDbEntity
  8
LAY-1
  6
CONTINUOUS
 62
     3
100
AcDbLine
 10
555.0
 20
256.0
 30
0.0
 11
557.0
 21
253.0
 31
0.0
  0
LINE
  5
256
330
1F
100
AcDbEntity
  8
LAY-1
  6
CONTINUOUS
 62
     3
100
AcDbLine
 10
526.0
 20
235.0
 30
0.0
 11
526.0
 21
224.0000000000002
 31
0.0
  0
LINE
  5
257
330
1F
100
AcDbEntity
  8
LAY-1
  6
CONTINUOUS
 62
     3
100
AcDbLine
 10
506.4999999999999
 20
264.0000000000001
 30
0.0
 11
515.9999999999999
 21
264.0000000000001
 31
0.0
  0
ARC
  5
258
330
1F
100
AcDbEntity
  8
LAY-1
  6
CONTINUOUS
 62
     3
100
AcDbCircle
 10
511.25
 20
253.511654243825
 30
0.0
 40
10.48834575617502
100
AcDbArc
 50
63.07115487917574
 51
116.9288451208243
  0
LINE
  5
259
330
1F
100
AcDbEntity
  8
LAY-1
  6
CONTINUOUS
 62
     3
100
AcDbLine
 10
506.4999999999999
 20
264.0000000000001
 30
0.0
 11
506.4999999999999
 21
256.0
 31
0.0
  0
ARC
  5
25A
330
1F
100
AcDbEntity
  8
LAY-1
  6
CONTINUOUS
 62
     3
100
AcDbCircle
 10
520.75
 20
253.511654243825
 30
0.0
 40
10.48834575617502
100
AcDbArc
 50
63.07115487917574
 51
116.9288451208243
  0
LINE
  5
25B
330
1F
100
AcDbEntity
  8
LAY-1
  6
CONTINUOUS
 62
     3
100
AcDbLine
 10
525.5000000000001
 20
264.0000000000001
 30
0.0
 11
516.0000000000001
 21
264.0000000000001
 31
0.0
  0
LINE
  5
25C
330
1F
100
AcDbEntity
  8
LAY-1
  6
CONTINUOUS
 62
     3
100
AcDbLine
 10
525.5000000000001
 20
264.0000000000001
 30
0.0
 11
525.5000000000001
 21
256.0
 31
0.0
  0
LINE
  5
25D
330
1F
100
AcDbEntity
  8
LAY-1
  6
CONTINUOUS
 62
     3
100
AcDbLine
 10
516.0
 20
262.86274491289
 30
0.0
 11
516.0
 21
256.0
 31
0.0
  0
LINE
  5
25E
330
1F
100
AcDbEntity
  8
LAY-1
  6
CONTINUOUS
 62
     3
100
AcDbLine
 10
546.4999999999999
 20
264.0000000000001
 30
0.0
 11
555.9999999999999
 21
264.0000000000001
 31
0.0
  0
ARC
  5
25F
330
1F
100
AcDbEntity
  8
LAY-1
  6
CONTINUOUS
 62
     3
100
AcDbCircle
 10
551.25
 20
253.511654243825
 30
0.0
 40
10.48834575617502
100
AcDbArc
 50
63.07115487917574
 51
116.9288451208243
  0
LINE
  5
260
330
1F
100
AcDbEntity
  8
LAY-1
  6
CONTINUOUS
 62
     3
100
AcDbLine
 10
546.4999999999999
 20
264.0000000000001
 30
0.0
 11
546.4999999999999
 21
256.0
 31
0.0
  0
ARC
  5
261
330
1F
100
AcDbEntity
  8
LAY-1
  6
CONTINUOUS
 62
     3
100
AcDbCircle
 10
560.75
 20
253.511654243825
 30
0.0
 40
10.48834575617502
100
AcDbArc
 50
63.07115487917574
 51
116.9288451208243
  0
LINE
  5
262
330
1F
100
AcDbEntity
  8
LAY-1
  6
CONTINUOUS
 62
     3
100
AcDbLine
 10
565.5000000000001
 20
264.0000000000001
 30
0.0
 11
556.0000000000001
 21
264.0000000000001
 31
0.0
  0
LINE
  5
263
330
1F
100
AcDbEntity
  8
LAY-1
  6
CONTINUOUS
 62
     3
100
AcDbLine
 10
565.5000000000001
 20
264.0000000000001
 30
0.0
 11
565.5000000000001
 21
256.0
 31
0.0
  0
LINE
  5
264
330
1F
100
AcDbEntity
  8
LAY-1
  6
CONTINUOUS
 62
     3
100
AcDbLine
 10
556.0
 20
262.86274491289
 30
0.0
 11
556.0
 21
256.0
 31
0.0
  0
LINE
  5
265
330
1F
100
AcDbEntity
  8
LAY-1
  6
CONTINUOUS
 62
     3
100
AcDbLine
 10
589.5
 20
258.2582374334939
 30
0.0
 11
589.5
 21
265.0
 31
0.0
  0
LINE
  5
266
330
1F
100
AcDbEntity
  8
LAY-1
  6
CONTINUOUS
 62
     3
100
AcDbLine
 10
583.5
 20
257.6025403784438
 30
0.0
 11
583.5
 21
265.0
 31
0.0
  0
LINE
  5
267
330
1F
100
AcDbEntity
  8
LAY-1
  6
CONTINUOUS
 62
     3
100
AcDbLine
 10
602.5
 20
258.2582374334939
 30
0.0
 11
602.5
 21
265.0
 31
0.0
  0
LINE
  5
268
330
1F
100
AcDbEntity
  8
LAY-1
  6
CONTINUOUS
 62
     3
100
AcDbLine
 10
608.5
 20
257.6025403784438
 30
0.0
 11
608.5
 21
265.0
 31
0.0
  0
LINE
  5
269
330
1F
100
AcDbEntity
  8
LAY-1
  6
CONTINUOUS
 62
     3
100
AcDbLine
 10
583.5
 20
265.0
 30
0.0
 11
589.5
 21
265.0
 31
0.0
  0
LINE
  5
26A
330
1F
100
AcDbEntity
  8
LAY-1
  6
CONTINUOUS
 62
     3
100
AcDbLine
 10
602.5
 20
265.0
 30
0.0
 11
608.5
 21
265.0
 31
0.0
  0
LINE
  5
26B
330
1F
100
AcDbEntity
  8
LAY-1
  6
CONTINUOUS
 62
     3
100
AcDbLine
 10
566.75
 20
253.4662809880499
 30
0.0
 11
566.75
 21
256.0
 31
0.0
  0
LINE
  5
26C
330
1F
100
AcDbEntity
  8
LAY-1
  6
EXLTYPE2
 62
     1
100
AcDbLine
 10
516.0
 20
269.0
 30
0.0
 11
516.0
 21
204.0
 31
0.0
  0
LINE
  5
26D
330
1F
100
AcDbEntity
  8
LAY-1
  6
CONTINUOUS
 62
     3
100
AcDbLine
 10
688.5
 20
253.0
 30
0.0
 11
626.532769281544
 21
253.0
 31
0.0
  0
LINE
  5
26E
330
1F
100
AcDbEntity
  8
LAY-1
  6
CONTINUOUS
 62
     3
100
AcDbLine
 10
676.0
 20
256.0
 30
0.0
 11
686.75
 21
256.0
 31
0.0
  0
LINE
  5
26F
330
1F
100
AcDbEntity
  8
LAY-1
  6
CONTINUOUS
 62
     3
100
AcDbLine
 10
686.75
 20
253.0000000000002
 30
0.0
 11
686.75
 21
256.0
 31
0.0
  0
LINE
  5
270
330
1F
100
AcDbEntity
  8
LAY-1
  6
CONTINUOUS
 62
     3
100
AcDbLine
 10
676.0
 20
256.0
 30
0.0
 11
665.25
 21
256.0
 31
0.0
  0
LINE
  5
271
330
1F
100
AcDbEntity
  8
LAY-1
  6
CONTINUOUS
 62
     3
100
AcDbLine
 10
665.25
 20
253.0000000000002
 30
0.0
 11
665.25
 21
256.0
 31
0.0
  0
LINE
  5
272
330
1F
100
AcDbEntity
  8
LAY-1
  6
CONTINUOUS
 62
     3
100
AcDbLine
 10
636.0
 20
256.0
 30
0.0
 11
646.75
 21
256.0
 31
0.0
  0
LINE
  5
273
330
1F
100
AcDbEntity
  8
LAY-1
  6
CONTINUOUS
 62
     3
100
AcDbLine
 10
646.75
 20
253.0000000000002
 30
0.0
 11
646.75
 21
256.0
 31
0.0
  0
LINE
  5
274
330
1F
100
AcDbEntity
  8
LAY-1
  6
CONTINUOUS
 62
     3
100
AcDbLine
 10
636.0
 20
256.0
 30
0.0
 11
625.25
 21
256.0
 31
0.0
  0
LINE
  5
275
330
1F
100
AcDbEntity
  8
LAY-1
  6
CONTINUOUS
 62
     3
100
AcDbLine
 10
685.5000000000001
 20
264.0000000000001
 30
0.0
 11
676.0000000000001
 21
264.0000000000001
 31
0.0
  0
ARC
  5
276
330
1F
100
AcDbEntity
  8
LAY-1
  6
CONTINUOUS
 62
     3
100
AcDbCircle
 10
680.75
 20
253.5116542438249
 30
0.0
 40
10.48834575617502
100
AcDbArc
 50
63.07115487917579
 51
116.9288451208242
  0
LINE
  5
277
330
1F
100
AcDbEntity
  8
LAY-1
  6
CONTINUOUS
 62
     3
100
AcDbLine
 10
685.5000000000001
 20
264.0000000000001
 30
0.0
 11
685.5000000000001
 21
256.0
 31
0.0
  0
ARC
  5
278
330
1F
100
AcDbEntity
  8
LAY-1
  6
CONTINUOUS
 62
     3
100
AcDbCircle
 10
671.25
 20
253.5116542438249
 30
0.0
 40
10.48834575617502
100
AcDbArc
 50
63.07115487917579
 51
116.9288451208242
  0
LINE
  5
279
330
1F
100
AcDbEntity
  8
LAY-1
  6
CONTINUOUS
 62
     3
100
AcDbLine
 10
666.4999999999999
 20
264.0000000000001
 30
0.0
 11
675.9999999999999
 21
264.0000000000001
 31
0.0
  0
LINE
  5
27A
330
1F
100
AcDbEntity
  8
LAY-1
  6
CONTINUOUS
 62
     3
100
AcDbLine
 10
666.4999999999999
 20
264.0000000000001
 30
0.0
 11
666.4999999999999
 21
256.0
 31
0.0
  0
LINE
  5
27B
330
1F
100
AcDbEntity
  8
LAY-1
  6
CONTINUOUS
 62
     3
100
AcDbLine
 10
676.0
 20
262.86274491289
 30
0.0
 11
676.0
 21
256.0
 31
0.0
  0
LINE
  5
27C
330
1F
100
AcDbEntity
  8
LAY-1
  6
CONTINUOUS
 62
     3
100
AcDbLine
 10
645.5000000000001
 20
264.0000000000001
 30
0.0
 11
636.0000000000001
 21
264.0000000000001
 31
0.0
  0
ARC
  5
27D
330
1F
100
AcDbEntity
  8
LAY-1
  6
CONTINUOUS
 62
     3
100
AcDbCircle
 10
640.75
 20
253.511654243825
 30
0.0
 40
10.48834575617502
100
AcDbArc
 50
63.07115487917574
 51
116.9288451208243
  0
LINE
  5
27E
330
1F
100
AcDbEntity
  8
LAY-1
  6
CONTINUOUS
 62
     3
100
AcDbLine
 10
645.5000000000001
 20
264.0000000000001
 30
0.0
 11
645.5000000000001
 21
256.0
 31
0.0
  0
ARC
  5
27F
330
1F
100
AcDbEntity
  8
LAY-1
  6
CONTINUOUS
 62
     3
100
AcDbCircle
 10
631.25
 20
253.511654243825
 30
0.0
 40
10.48834575617502
100
AcDbArc
 50
63.07115487917574
 51
116.9288451208243
  0
LINE
  5
280
330
1F
100
AcDbEntity
  8
LAY-1
  6
CONTINUOUS
 62
     3
100
AcDbLine
 10
626.4999999999999
 20
264.0000000000001
 30
0.0
 11
635.9999999999999
 21
264.0000000000001
 31
0.0
  0
LINE
  5
281
330
1F
100
AcDbEntity
  8
LAY-1
  6
CONTINUOUS
 62
     3
100
AcDbLine
 10
626.4999999999999
 20
264.0000000000001
 30
0.0
 11
626.4999999999999
 21
256.0
 31
0.0
  0
LINE
  5
282
330
1F
100
AcDbEntity
  8
LAY-1
  6
CONTINUOUS
 62
     3
100
AcDbLine
 10
636.0
 20
262.86274491289
 30
0.0
 11
636.0
 21
256.0
 31
0.0
  0
LINE
  5
283
330
1F
100
AcDbEntity
  8
LAY-1
  6
CONTINUOUS
 62
     3
100
AcDbLine
 10
625.25
 20
253.4662809880499
 30
0.0
 11
625.25
 21
256.0
 31
0.0
  0
LINE
  5
284
330
1F
100
AcDbEntity
  8
LAY-1
  6
EXLTYPE2
 62
     1
100
AcDbLine
 10
556.0
 20
269.0
 30
0.0
 11
556.0
 21
248.8219120813669
 31
0.0
  0
LINE
  5
285
330
1F
100
AcDbEntity
  8
LAY-1
  6
EXLTYPE2
 62
     1
100
AcDbLine
 10
636.0
 20
269.0
 30
0.0
 11
636.0
 21
248.8219120813669
 31
0.0
  0
LINE
  5
286
330
1F
100
AcDbEntity
  8
LAY-1
  6
EXLTYPE2
 62
     1
100
AcDbLine
 10
676.0
 20
269.0
 30
0.0
 11
676.0
 21
204.0
 31
0.0
  0
LINE
  5
287
330
1F
100
AcDbEntity
  8
LAY-1
  6
CONTINUOUS
 62
     1
100
AcDbLine
 10
681.053009
 20
235.0
 30
0.0
 11
681.053009
 21
224.0000000000002
 31
0.0
  0
LINE
  5
288
330
1F
100
AcDbEntity
  8
LAY-1
  6
CONTINUOUS
 62
     3
100
AcDbLine
 10
682.00003
 20
235.0
 30
0.0
 11
682.00003
 21
224.0000000000002
 31
0.0
  0
LINE
  5
289
330
1F
100
AcDbEntity
  8
LAY-1
  6
CONTINUOUS
 62
     1
100
AcDbLine
 10
670.947052
 20
235.0
 30
0.0
 11
670.947052
 21
224.0000000000002
 31
0.0
  0
LINE
  5
28A
330
1F
100
AcDbEntity
  8
LAY-1
  6
CONTINUOUS
 62
     3
100
AcDbLine
 10
670.00003
 20
235.0
 30
0.0
 11
670.00003
 21
224.0000000000002
 31
0.0
  0
LINE
  5
28B
330
1F
100
AcDbEntity
  8
LAY-1
  6
CONTINUOUS
 62
     3
100
AcDbLine
 10
666.0
 20
235.0
 30
0.0
 11
666.0
 21
224.0000000000002
 31
0.0
  0
CIRCLE
  5
28C
330
1F
100
AcDbEntity
  8
LAY-1
  6
CONTINUOUS
 62
     3
100
AcDbCircle
 10
645.49747468305
 20
121.5025253169401
 30
0.0
 40
9.5
  0
LINE
  5
28D
330
1F
100
AcDbEntity
  8
LAY-1
  6
EXLTYPE2
 62
     1
100
AcDbLine
 10
637.0121933088164
 20
129.987806691177
 30
0.0
 11
655.4999999999967
 21
111.4999999999968
 31
0.0
  0
CIRCLE
  5
28E
330
1F
100
AcDbEntity
  8
LAY-1
  6
CONTINUOUS
 62
     3
100
AcDbCircle
 10
546.50252531695
 20
121.50252531694
 30
0.0
 40
9.5
  0
LINE
  5
28F
330
1F
100
AcDbEntity
  8
LAY-1
  6
EXLTYPE2
 62
     1
100
AcDbLine
 10
554.9878066911836
 20
129.9878066911769
 30
0.0
 11
536.5000000000034
 21
111.4999999999967
 31
0.0
  0
LINE
  5
290
330
1F
100
AcDbEntity
  8
LAY-1
  6
CONTINUOUS
 62
     3
100
AcDbLine
 10
688.5
 20
89.0000000000001
 30
0.0
 11
688.5
 21
107.0000000000001
 31
0.0
  0
LINE
  5
291
330
1F
100
AcDbEntity
  8
LAY-1
  6
CONTINUOUS
 62
     3
100
AcDbLine
 10
687.9999999999999
 20
131.0000000000001
 30
0.0
 11
687.9999999999999
 21
118.0000000000001
 31
0.0
  0
ARC
  5
292
330
1F
100
AcDbEntity
  8
LAY-1
  6
CONTINUOUS
 62
     3
100
AcDbCircle
 10
684.9999999999999
 20
130.9999999999996
 30
0.0
 40
3.0
100
AcDbArc
 50
0.0
 51
90.00000000000001
  0
LINE
  5
293
330
1F
100
AcDbEntity
  8
LAY-1
  6
CONTINUOUS
 62
     3
100
AcDbLine
 10
503.5000000000001
 20
89.0
 30
0.0
 11
503.5000000000001
 21
107.0
 31
0.0
  0
LINE
  5
294
330
1F
100
AcDbEntity
  8
LAY-1
  6
CONTINUOUS
 62
     3
100
AcDbLine
 10
504.0000000000003
 20
130.9999999999998
 30
0.0
 11
504.0000000000004
 21
117.9999999999997
 31
0.0
  0
ARC
  5
295
330
1F
100
AcDbEntity
  8
LAY-1
  6
CONTINUOUS
 62
     3
100
AcDbCircle
 10
507.0000000000003
 20
130.9999999999995
 30
0.0
 40
3.0
100
AcDbArc
 50
90.00000000000001
 51
180.0
  0
LINE
  5
296
330
1F
100
AcDbEntity
  8
LAY-1
  6
CONTINUOUS
 62
     3
100
AcDbLine
 10
655.6678305286861
 20
107.0000000000001
 30
0.0
 11
688.5
 21
107.0000000000001
 31
0.0
  0
LINE
  5
297
330
1F
100
AcDbEntity
  8
LAY-1
  6
CONTINUOUS
 62
     3
100
AcDbLine
 10
503.5000000000001
 20
89.0
 30
0.0
 11
565.467230718456
 21
89.00000000000004
 31
0.0
  0
LINE
  5
298
330
1F
100
AcDbEntity
  8
LAY-1
  6
CONTINUOUS
 62
     3
100
AcDbLine
 10
626.532769281544
 20
89.00000000000007
 30
0.0
 11
688.5
 21
89.0000000000001
 31
0.0
  0
LINE
  5
299
330
1F
100
AcDbEntity
  8
LAY-1
  6
CONTINUOUS
 62
     3
100
AcDbLine
 10
526.3778052629768
 20
117.9999999999998
 30
0.0
 11
503.9999999999999
 21
117.9999999999998
 31
0.0
  0
LINE
  5
29A
330
1F
100
AcDbEntity
  8
LAY-1
  6
CONTINUOUS
 62
     3
100
AcDbLine
 10
687.9999999999999
 20
117.9999999999999
 30
0.0
 11
665.6221947370232
 21
117.9999999999999
 31
0.0
  0
LINE
  5
29B
330
1F
100
AcDbEntity
  8
LAY-1
  6
CONTINUOUS
 62
     3
100
AcDbLine
 10
684.9999999999999
 20
133.9999999999996
 30
0.0
 11
675.292181203445
 21
133.9999999999996
 31
0.0
  0
LINE
  5
29C
330
1F
100
AcDbEntity
  8
LAY-1
  6
CONTINUOUS
 62
     3
100
AcDbLine
 10
516.707818796555
 20
133.9999999999995
 30
0.0
 11
507.0000000000003
 21
133.9999999999995
 31
0.0
  0
LINE
  5
29D
330
1F
100
AcDbEntity
  8
LAY-1
  6
CONTINUOUS
 62
     3
100
AcDbLine
 10
536.332169471314
 20
107.0
 30
0.0
 11
503.5000000000001
 21
107.0
 31
0.0
  0
LINE
  5
29E
330
1F
100
AcDbEntity
  8
LAY-1
  6
CONTINUOUS
 62
     3
100
AcDbLine
 10
516.0
 20
86.00000000000001
 30
0.0
 11
505.2500000000001
 21
86.0
 31
0.0
  0
LINE
  5
29F
330
1F
100
AcDbEntity
  8
LAY-1
  6
CONTINUOUS
 62
     3
100
AcDbLine
 10
505.2500000000001
 20
88.99999999999977
 30
0.0
 11
505.2500000000001
 21
86.0
 31
0.0
  0
LINE
  5
2A0
330
1F
100
AcDbEntity
  8
LAY-1
  6
CONTINUOUS
 62
     3
100
AcDbLine
 10
516.0
 20
86.00000000000001
 30
0.0
 11
526.75
 21
86.00000000000001
 31
0.0
  0
LINE
  5
2A1
330
1F
100
AcDbEntity
  8
LAY-1
  6
CONTINUOUS
 62
     3
100
AcDbLine
 10
526.75
 20
88.99999999999979
 30
0.0
 11
526.75
 21
86.00000000000001
 31
0.0
  0
LINE
  5
2A2
330
1F
100
AcDbEntity
  8
LAY-1
  6
CONTINUOUS
 62
     1
100
AcDbLine
 10
510.9469910000001
 20
107.0
 30
0.0
 11
510.9469910000001
 21
117.9999999999998
 31
0.0
  0
LINE
  5
2A3
330
1F
100
AcDbEntity
  8
LAY-1
  6
CONTINUOUS
 62
     3
100
AcDbLine
 10
509.99997
 20
107.0
 30
0.0
 11
509.99997
 21
117.9999999999998
 31
0.0
  0
LINE
  5
2A4
330
1F
100
AcDbEntity
  8
LAY-1
  6
CONTINUOUS
 62
     1
100
AcDbLine
 10
521.052948
 20
107.0
 30
0.0
 11
521.052948
 21
117.9999999999998
 31
0.0
  0
LINE
  5
2A5
330
1F
100
AcDbEntity
  8
LAY-1
  6
CONTINUOUS
 62
     3
100
AcDbLine
 10
521.9999700000001
 20
107.0
 30
0.0
 11
521.99997
 21
117.9999999999998
 31
0.0
  0
LINE
  5
2A6
330
1F
100
AcDbEntity
  8
LAY-1
  6
CONTINUOUS
 62
     3
100
AcDbLine
 10
556.0
 20
86.00000000000003
 30
0.0
 11
545.25
 21
86.00000000000003
 31
0.0
  0
LINE
  5
2A7
330
1F
100
AcDbEntity
  8
LAY-1
  6
CONTINUOUS
 62
     3
100
AcDbLine
 10
545.25
 20
88.9999999999998
 30
0.0
 11
545.25
 21
86.00000000000003
 31
0.0
  0
LINE
  5
2A8
330
1F
100
AcDbEntity
  8
LAY-1
  6
CONTINUOUS
 62
     3
100
AcDbLine
 10
556.0
 20
86.00000000000003
 30
0.0
 11
566.75
 21
86.00000000000004
 31
0.0
  0
LINE
  5
2A9
330
1F
100
AcDbEntity
  8
LAY-1
  6
CONTINUOUS
 62
     3
100
AcDbLine
 10
526.0
 20
107.0
 30
0.0
 11
526.0
 21
117.9999999999998
 31
0.0
  0
LINE
  5
2AA
330
1F
100
AcDbEntity
  8
LAY-1
  6
CONTINUOUS
 62
     3
100
AcDbLine
 10
506.4999999999999
 20
77.99999999999989
 30
0.0
 11
516.0
 21
77.9999999999999
 31
0.0
  0
ARC
  5
2AB
330
1F
100
AcDbEntity
  8
LAY-1
  6
CONTINUOUS
 62
     3
100
AcDbCircle
 10
511.2500000000001
 20
88.48834575617502
 30
0.0
 40
10.48834575617502
100
AcDbArc
 50
243.0711548791757
 51
296.9288451208243
  0
LINE
  5
2AC
330
1F
100
AcDbEntity
  8
LAY-1
  6
CONTINUOUS
 62
     3
100
AcDbLine
 10
506.4999999999999
 20
77.99999999999989
 30
0.0
 11
506.4999999999999
 21
86.0
 31
0.0
  0
ARC
  5
2AD
330
1F
100
AcDbEntity
  8
LAY-1
  6
CONTINUOUS
 62
     3
100
AcDbCircle
 10
520.75
 20
88.48834575617504
 30
0.0
 40
10.48834575617502
100
AcDbArc
 50
243.0711548791757
 51
296.9288451208243
  0
LINE
  5
2AE
330
1F
100
AcDbEntity
  8
LAY-1
  6
CONTINUOUS
 62
     3
100
AcDbLine
 10
525.5000000000002
 20
77.9999999999999
 30
0.0
 11
516.0000000000002
 21
77.9999999999999
 31
0.0
  0
LINE
  5
2AF
330
1F
100
AcDbEntity
  8
LAY-1
  6
CONTINUOUS
 62
     3
100
AcDbLine
 10
525.5000000000002
 20
77.9999999999999
 30
0.0
 11
525.5000000000002
 21
86.00000000000001
 31
0.0
  0
LINE
  5
2B0
330
1F
100
AcDbEntity
  8
LAY-1
  6
CONTINUOUS
 62
     3
100
AcDbLine
 10
516.0
 20
79.13725508711003
 30
0.0
 11
516.0
 21
86.00000000000001
 31
0.0
  0
LINE
  5
2B1
330
1F
100
AcDbEntity
  8
LAY-1
  6
CONTINUOUS
 62
     3
100
AcDbLine
 10
546.4999999999999
 20
77.99999999999991
 30
0.0
 11
555.9999999999999
 21
77.99999999999991
 31
0.0
  0
ARC
  5
2B2
330
1F
100
AcDbEntity
  8
LAY-1
  6
CONTINUOUS
 62
     3
100
AcDbCircle
 10
551.25
 20
88.48834575617505
 30
0.0
 40
10.48834575617502
100
AcDbArc
 50
243.0711548791757
 51
296.9288451208243
  0
LINE
  5
2B3
330
1F
100
AcDbEntity
  8
LAY-1
  6
CONTINUOUS
 62
     3
100
AcDbLine
 10
546.4999999999999
 20
77.99999999999991
 30
0.0
 11
546.4999999999999
 21
86.00000000000003
 31
0.0
  0
ARC
  5
2B4
330
1F
100
AcDbEntity
  8
LAY-1
  6
CONTINUOUS
 62
     3
100
AcDbCircle
 10
560.75
 20
88.48834575617505
 30
0.0
 40
10.48834575617502
100
AcDbArc
 50
243.0711548791757
 51
296.9288451208243
  0
LINE
  5
2B5
330
1F
100
AcDbEntity
  8
LAY-1
  6
CONTINUOUS
 62
     3
100
AcDbLine
 10
565.5000000000001
 20
77.99999999999993
 30
0.0
 11
556.0000000000001
 21
77.99999999999991
 31
0.0
  0
LINE
  5
2B6
330
1F
100
AcDbEntity
  8
LAY-1
  6
CONTINUOUS
 62
     3
100
AcDbLine
 10
565.5000000000001
 20
77.99999999999993
 30
0.0
 11
565.5000000000001
 21
86.00000000000004
 31
0.0
  0
LINE
  5
2B7
330
1F
100
AcDbEntity
  8
LAY-1
  6
CONTINUOUS
 62
     3
100
AcDbLine
 10
556.0
 20
79.13725508711005
 30
0.0
 11
556.0
 21
86.00000000000003
 31
0.0
  0
LINE
  5
2B8
330
1F
100
AcDbEntity
  8
LAY-1
  6
CONTINUOUS
 62
     3
100
AcDbLine
 10
589.5
 20
83.7417625665061
 30
0.0
 11
589.5
 21
77.00000000000004
 31
0.0
  0
LINE
  5
2B9
330
1F
100
AcDbEntity
  8
LAY-1
  6
CONTINUOUS
 62
     3
100
AcDbLine
 10
583.5
 20
84.3974596215562
 30
0.0
 11
583.5
 21
77.00000000000004
 31
0.0
  0
LINE
  5
2BA
330
1F
100
AcDbEntity
  8
LAY-1
  6
CONTINUOUS
 62
     3
100
AcDbLine
 10
602.5
 20
83.74176256650611
 30
0.0
 11
602.5
 21
77.00000000000006
 31
0.0
  0
LINE
  5
2BB
330
1F
100
AcDbEntity
  8
LAY-1
  6
CONTINUOUS
 62
     3
100
AcDbLine
 10
608.5
 20
84.39745962155621
 30
0.0
 11
608.5
 21
77.00000000000006
 31
0.0
  0
LINE
  5
2BC
330
1F
100
AcDbEntity
  8
LAY-1
  6
CONTINUOUS
 62
     3
100
AcDbLine
 10
583.5
 20
77.00000000000004
 30
0.0
 11
589.5
 21
77.00000000000004
 31
0.0
  0
LINE
  5
2BD
330
1F
100
AcDbEntity
  8
LAY-1
  6
CONTINUOUS
 62
     3
100
AcDbLine
 10
602.5
 20
77.00000000000006
 30
0.0
 11
608.5
 21
77.00000000000006
 31
0.0
  0
LINE
  5
2BE
330
1F
100
AcDbEntity
  8
LAY-1
  6
CONTINUOUS
 62
     3
100
AcDbLine
 10
566.75
 20
88.53371901195014
 30
0.0
 11
566.75
 21
86.00000000000004
 31
0.0
  0
LINE
  5
2BF
330
1F
100
AcDbEntity
  8
LAY-1
  6
EXLTYPE2
 62
     1
100
AcDbLine
 10
516.0
 20
73.00000000000001
 30
0.0
 11
516.0
 21
138.0
 31
0.0
  0
LINE
  5
2C0
330
1F
100
AcDbEntity
  8
LAY-1
  6
CONTINUOUS
 62
     3
100
AcDbLine
 10
688.5
 20
89.00000000000013
 30
0.0
 11
626.532769281544
 21
89.00000000000007
 31
0.0
  0
LINE
  5
2C1
330
1F
100
AcDbEntity
  8
LAY-1
  6
CONTINUOUS
 62
     3
100
AcDbLine
 10
676.0
 20
86.00000000000013
 30
0.0
 11
686.75
 21
86.00000000000013
 31
0.0
  0
LINE
  5
2C2
330
1F
100
AcDbEntity
  8
LAY-1
  6
CONTINUOUS
 62
     3
100
AcDbLine
 10
686.75
 20
88.9999999999999
 30
0.0
 11
686.75
 21
86.00000000000013
 31
0.0
  0
LINE
  5
2C3
330
1F
100
AcDbEntity
  8
LAY-1
  6
CONTINUOUS
 62
     3
100
AcDbLine
 10
676.0
 20
86.00000000000013
 30
0.0
 11
665.25
 21
86.00000000000013
 31
0.0
  0
LINE
  5
2C4
330
1F
100
AcDbEntity
  8
LAY-1
  6
CONTINUOUS
 62
     3
100
AcDbLine
 10
665.25
 20
88.9999999999999
 30
0.0
 11
665.25
 21
86.00000000000013
 31
0.0
  0
LINE
  5
2C5
330
1F
100
AcDbEntity
  8
LAY-1
  6
CONTINUOUS
 62
     3
100
AcDbLine
 10
636.0
 20
86.00000000000007
 30
0.0
 11
646.75
 21
86.00000000000009
 31
0.0
  0
LINE
  5
2C6
330
1F
100
AcDbEntity
  8
LAY-1
  6
CONTINUOUS
 62
     3
100
AcDbLine
 10
646.75
 20
88.99999999999986
 30
0.0
 11
646.75
 21
86.00000000000009
 31
0.0
  0
LINE
  5
2C7
330
1F
100
AcDbEntity
  8
LAY-1
  6
CONTINUOUS
 62
     3
100
AcDbLine
 10
636.0
 20
86.00000000000007
 30
0.0
 11
625.25
 21
86.00000000000007
 31
0.0
  0
LINE
  5
2C8
330
1F
100
AcDbEntity
  8
LAY-1
  6
CONTINUOUS
 62
     3
100
AcDbLine
 10
685.5000000000002
 20
77.99999999999999
 30
0.0
 11
676.0000000000002
 21
77.99999999999999
 31
0.0
  0
ARC
  5
2C9
330
1F
100
AcDbEntity
  8
LAY-1
  6
CONTINUOUS
 62
     3
100
AcDbCircle
 10
680.75
 20
88.48834575617515
 30
0.0
 40
10.48834575617502
100
AcDbArc
 50
243.0711548791758
 51
296.9288451208243
  0
LINE
  5
2CA
330
1F
100
AcDbEntity
  8
LAY-1
  6
CONTINUOUS
 62
     3
100
AcDbLine
 10
685.5000000000002
 20
77.99999999999999
 30
0.0
 11
685.5000000000002
 21
86.00000000000013
 31
0.0
  0
ARC
  5
2CB
330
1F
100
AcDbEntity
  8
LAY-1
  6
CONTINUOUS
 62
     3
100
AcDbCircle
 10
671.25
 20
88.48834575617515
 30
0.0
 40
10.48834575617502
100
AcDbArc
 50
243.0711548791758
 51
296.9288451208243
  0
LINE
  5
2CC
330
1F
100
AcDbEntity
  8
LAY-1
  6
CONTINUOUS
 62
     3
100
AcDbLine
 10
666.5
 20
77.99999999999999
 30
0.0
 11
676.0
 21
77.99999999999999
 31
0.0
  0
LINE
  5
2CD
330
1F
100
AcDbEntity
  8
LAY-1
  6
CONTINUOUS
 62
     3
100
AcDbLine
 10
666.5
 20
77.99999999999999
 30
0.0
 11
666.5
 21
86.00000000000013
 31
0.0
  0
LINE
  5
2CE
330
1F
100
AcDbEntity
  8
LAY-1
  6
CONTINUOUS
 62
     3
100
AcDbLine
 10
676.0
 20
79.13725508711012
 30
0.0
 11
676.0
 21
86.00000000000013
 31
0.0
  0
LINE
  5
2CF
330
1F
100
AcDbEntity
  8
LAY-1
  6
CONTINUOUS
 62
     3
100
AcDbLine
 10
645.5000000000002
 20
77.99999999999997
 30
0.0
 11
636.0000000000002
 21
77.99999999999996
 31
0.0
  0
ARC
  5
2D0
330
1F
100
AcDbEntity
  8
LAY-1
  6
CONTINUOUS
 62
     3
100
AcDbCircle
 10
640.75
 20
88.48834575617511
 30
0.0
 40
10.48834575617502
100
AcDbArc
 50
243.0711548791757
 51
296.9288451208243
  0
LINE
  5
2D1
330
1F
100
AcDbEntity
  8
LAY-1
  6
CONTINUOUS
 62
     3
100
AcDbLine
 10
645.5000000000002
 20
77.99999999999997
 30
0.0
 11
645.5000000000002
 21
86.00000000000009
 31
0.0
  0
ARC
  5
2D2
330
1F
100
AcDbEntity
  8
LAY-1
  6
CONTINUOUS
 62
     3
100
AcDbCircle
 10
631.25
 20
88.4883457561751
 30
0.0
 40
10.48834575617502
100
AcDbArc
 50
243.0711548791757
 51
296.9288451208243
  0
LINE
  5
2D3
330
1F
100
AcDbEntity
  8
LAY-1
  6
CONTINUOUS
 62
     3
100
AcDbLine
 10
626.5
 20
77.99999999999996
 30
0.0
 11
636.0
 21
77.99999999999996
 31
0.0
  0
LINE
  5
2D4
330
1F
100
AcDbEntity
  8
LAY-1
  6
CONTINUOUS
 62
     3
100
AcDbLine
 10
626.5
 20
77.99999999999996
 30
0.0
 11
626.4999999999999
 21
86.00000000000007
 31
0.0
  0
LINE
  5
2D5
330
1F
100
AcDbEntity
  8
LAY-1
  6
CONTINUOUS
 62
     3
100
AcDbLine
 10
636.0
 20
79.13725508711009
 30
0.0
 11
636.0
 21
86.00000000000007
 31
0.0
  0
LINE
  5
2D6
330
1F
100
AcDbEntity
  8
LAY-1
  6
CONTINUOUS
 62
     3
100
AcDbLine
 10
625.25
 20
88.53371901195017
 30
0.0
 11
625.25
 21
86.00000000000007
 31
0.0
  0
LINE
  5
2D7
330
1F
100
AcDbEntity
  8
LAY-1
  6
EXLTYPE2
 62
     1
100
AcDbLine
 10
556.0
 20
73.00000000000003
 30
0.0
 11
556.0
 21
93.17808791863311
 31
0.0
  0
LINE
  5
2D8
330
1F
100
AcDbEntity
  8
LAY-1
  6
EXLTYPE2
 62
     1
100
AcDbLine
 10
636.0
 20
73.00000000000007
 30
0.0
 11
636.0
 21
93.17808791863318
 31
0.0
  0
LINE
  5
2D9
330
1F
100
AcDbEntity
  8
LAY-1
  6
EXLTYPE2
 62
     1
100
AcDbLine
 10
676.0
 20
73.0000000000001
 30
0.0
 11
676.0
 21
138.0000000000001
 31
0.0
  0
LINE
  5
2DA
330
1F
100
AcDbEntity
  8
LAY-1
  6
CONTINUOUS
 62
     1
100
AcDbLine
 10
681.053009
 20
107.0000000000001
 30
0.0
 11
681.053009
 21
117.9999999999999
 31
0.0
  0
LINE
  5
2DB
330
1F
100
AcDbEntity
  8
LAY-1
  6
CONTINUOUS
 62
     3
100
AcDbLine
 10
682.00003
 20
107.0000000000001
 30
0.0
 11
682.00003
 21
117.9999999999999
 31
0.0
  0
LINE
  5
2DC
330
1F
100
AcDbEntity
  8
LAY-1
  6
CONTINUOUS
 62
     1
100
AcDbLine
 10
670.947052
 20
107.0000000000001
 30
0.0
 11
670.947052
 21
117.9999999999999
 31
0.0
  0
LINE
  5
2DD
330
1F
100
AcDbEntity
  8
LAY-1
  6
CONTINUOUS
 62
     3
100
AcDbLine
 10
670.00003
 20
107.0000000000001
 30
0.0
 11
670.00003
 21
117.9999999999999
 31
0.0
  0
LINE
  5
2DE
330
1F
100
AcDbEntity
  8
LAY-1
  6
CONTINUOUS
 62
     3
100
AcDbLine
 10
666.0
 20
107.0000000000001
 30
0.0
 11
666.0
 21
117.9999999999999
 31
0.0
  0
LINE
  5
2DF
330
1F
100
AcDbEntity
  8
LAY-1
  6
CONTINUOUS
 62
     3
100
AcDbLine
 10
637.0
 20
86.00000000000007
 30
0.0
 11
635.0
 21
89.00000000000007
 31
0.0
  0
LINE
  5
2E0
330
1F
100
AcDbEntity
  8
LAY-1
  6
CONTINUOUS
 62
     3
100
AcDbLine
 10
677.0
 20
86.00000000000013
 30
0.0
 11
675.0
 21
89.00000000000013
 31
0.0
  0
LINE
  5
2E1
330
1F
100
AcDbEntity
  8
LAY-1
  6
CONTINUOUS
 62
     3
100
AcDbLine
 10
515.0
 20
88.99999999999999
 30
0.0
 11
517.0
 21
85.99999999999999
 31
0.0
  0
LINE
  5
2E2
330
1F
100
AcDbEntity
  8
LAY-1
  6
CONTINUOUS
 62
     3
100
AcDbLine
 10
555.0
 20
88.99999999999997
 30
0.0
 11
557.0
 21
85.99999999999997
 31
0.0
  0
LINE
  5
2E3
330
1F
100
AcDbEntity
  8
LAY-1
  6
CONTINUOUS
 62
     3
100
AcDbLine
 10
635.0
 20
256.0
 30
0.0
 11
637.0
 21
253.0
 31
0.0
  0
LINE
  5
2E4
330
1F
100
AcDbEntity
  8
LAY-1
  6
CONTINUOUS
 62
     3
100
AcDbLine
 10
675.0
 20
256.0
 30
0.0
 11
677.0
 21
253.0
 31
0.0
  0
LINE
  5
2E5
330
1F
100
AcDbEntity
  8
LAY-1
  6
EXLTYPE2
 62
     1
100
AcDbLine
 10
258.9999999999999
 20
269.0
 30
0.0
 11
258.9999999999999
 21
72.0
 31
0.0
  0
TEXT
  5
2E7
330
1F
100
AcDbEntity
  8
LAY-1
  6
CONTINUOUS
 62
     3
100
AcDbText
 10
517.9999999999999
 20
489.40625
 30
0.0
 40
6.833105335157319
  1
ＳＴＡＩＮＬＥＳＳ　ＳＴＥＥＬ
  7
EXCADTTF1
 72
     5
 11
667.9999999999999
 21
489.40625
 31
0.0
100
AcDbText
  0
TEXT
  5
2E8
330
1F
100
AcDbEntity
  8
LAY-1
  6
CONTINUOUS
 62
     3
100
AcDbText
 10
517.9999999999999
 20
469.40625
 30
0.0
 40
6.833105335157319
  1
ＳＩＧＨＴ　ＧＬＡＳＳ
  7
EXCADTTF1
 72
     5
 11
627.9999999999999
 21
469.40625
 31
0.0
100
AcDbText
  0
TEXT
  5
2E9
330
1F
100
AcDbEntity
  8
LAY-1
  6
CONTINUOUS
 62
     3
100
AcDbText
 10
517.9999999999999
 20
429.40625
 30
0.0
 40
6.833105335157319
  1
１０Ｋ－６５Ａ
  7
EXCADTTF1
 72
     5
 11
587.9999999999999
 21
429.40625
 31
0.0
100
AcDbText
  0
TEXT
  5
2EA
330
1F
100
AcDbEntity
  8
LAY-1
  6
CONTINUOUS
 62
     3
100
AcDbText
 10
517.9999999999999
 20
449.40625
 30
0.0
 40
6.833105335157319
  1
１０ＦＧＬ－４－１３Ａ
  7
EXCADTTF1
 72
     5
 11
627.9999999999999
 21
449.40625
 31
0.0
100
AcDbText
  0
LINE
  5
2EB
330
1F
100
AcDbEntity
  8
LAY-1
  6
CONTINUOUS
 62
     3
100
AcDbLine
 10
259.0000000000001
 20
465.5000000000003
 30
0.0
 11
222.0
 21
465.5000000000003
 31
0.0
  0
LINE
  5
2EC
330
1F
100
AcDbEntity
  8
LAY-1
  6
CONTINUOUS
 62
     3
100
AcDbLine
 10
241.5833024919711
 20
400.5000000000018
 30
0.0
 11
258.9999999999948
 21
465.5000000000013
 31
0.0
  0
LINE
  5
2ED
330
1F
100
AcDbEntity
  8
LAY-1
  6
CONTINUOUS
 62
     3
100
AcDbLine
 10
241.58330249197
 20
400.5000000000002
 30
0.0
 11
222.0
 21
400.5000000000002
 31
0.0
  0
CIRCLE
  5
2EE
330
1F
100
AcDbEntity
  8
LAY-1
  6
CONTINUOUS
 62
     3
100
AcDbCircle
 10
596.0
 20
171.0
 30
0.0
 40
29.75
  0
ENDSEC
  0
SECTION
  2
OBJECTS
  0
DICTIONARY
  5
C
330
0
100
AcDbDictionary
  3
ACAD_GROUP
350
D
  3
ACAD_LAYOUT
350
1A
  3
ACAD_MATERIAL
350
43
  3
ACAD_MLEADERSTYLE
350
6B
  3
ACAD_MLINESTYLE
350
17
  3
ACAD_PLOTSETTINGS
350
19
  3
ACAD_SCALELIST
350
47
  3
ACAD_VISUALSTYLE
350
2A
  3
ACDBHEADERROUNDTRIPXREC
350
2EF
  3
ACDBVARIABLEDICTIONARY
350
310
  0
DICTIONARY
  5
319
330
8
100
AcDbDictionary
280
     1
  3
ACAD_XREC_ROUNDTRIP
360
31A
  0
DICTIONARY
  5
D
102
{ACAD_REACTORS
330
C
102
}
330
C
100
AcDbDictionary
  0
DICTIONARY
  5
1A
102
{ACAD_REACTORS
330
C
102
}
330
C
100
AcDbDictionary
  0
DICTIONARY
  5
43
102
{ACAD_REACTORS
330
C
102
}
330
C
100
AcDbDictionary
  3
BYBLOCK
350
45
  3
BYLAYER
350
44
  3
GLOBAL
350
46
  0
DICTIONARY
  5
6B
102
{ACAD_REACTORS
330
C
102
}
330
C
100
AcDbDictionary
  3
STANDARD
350
6C
  0
DICTIONARY
  5
17
102
{ACAD_REACTORS
330
C
102
}
330
C
100
AcDbDictionary
  3
STANDARD
350
18
  0
DICTIONARY
  5
19
102
{ACAD_REACTORS
330
C
102
}
330
C
100
AcDbDictionary
  0
DICTIONARY
  5
47
102
{ACAD_REACTORS
330
C
102
}
330
C
100
AcDbDictionary
  3
A0
350
48
  3
A1
350
49
  3
A2
350
4A
  3
A3
350
4B
  3
A4
350
4C
  3
A5
350
4D
  3
A6
350
4E
  3
A7
350
4F
  3
A8
350
50
  3
A9
350
51
  3
B0
350
52
  3
B1
350
53
  3
B2
350
54
  3
B3
350
55
  3
B4
350
56
  3
B5
350
57
  3
B6
350
58
  3
B7
350
59
  3
B8
350
5A
  3
B9
350
5B
  3
C0
350
5C
  3
C1
350
5D
  3
C2
350
5E
  3
C3
350
5F
  3
C4
350
60
  3
C5
350
61
  3
C6
350
62
  3
C7
350
63
  3
C8
350
64
  3
C9
350
65
  3
D0
350
66
  3
D1
350
67
  3
D2
350
68
  0
DICTIONARY
  5
2A
102
{ACAD_REACTORS
330
C
102
}
330
C
100
AcDbDictionary
  3
2DWIREFRAME
350
2F
  3
BASIC
350
32
  3
BRIGHTEN
350
36
  3
COLORCHANGE
350
3A
  3
CONCEPTUAL
350
34
  3
DIM
350
35
  3
EDGECOLOROFF
350
3D
  3
FACEPATTERN
350
39
  3
FLAT
350
2B
  3
FLATWITHEDGES
350
2C
  3
GOURAUD
350
2D
  3
GOURAUDWITHEDGES
350
2E
  3
HIDDEN
350
31
  3
JITTEROFF
350
3B
  3
LINEPATTERN
350
38
  3
OVERHANGOFF
350
3C
  3
REALISTIC
350
33
  3
SHADED
350
42
  3
SHADED_WITH_EDGES
350
41
  3
SHADES_OF_GRAY
350
3E
  3
SKETCHY
350
3F
  3
THICKEN
350
37
  3
WIREFRAME
350
30
  3
X-RAY
350
40
  0
DICTIONARY
  5
2EF
102
{ACAD_REACTORS
330
C
102
}
330
C
100
AcDbDictionary
  3
CEPSNID
350
2F9
  3
CEPSNTYPE
350
2F8
  3
DIMSTYLEDATA
350
30F
  3
FINGERPRINTGUID
350
2FA
  3
HYPERLINKBASE
350
2F2
  3
INSUNITS
350
2F7
  3
LAYOUTDICT
350
2F4
  3
LWETCUNION
350
2F6
  3
PLOTSETDICT
350
2F5
  3
PSVPSCALE
350
2FC
  3
PUCSBASE
350
2FF
  3
PUCSORGBACK
350
305
  3
PUCSORGBOTTOM
350
301
  3
PUCSORGFRONT
350
304
  3
PUCSORGLEFT
350
302
  3
PUCSORGRIGHT
350
303
  3
PUCSORGTOP
350
300
  3
PUCSORTHOREF
350
2FD
  3
PUCSORTHOVIEW
350
2FE
  3
STYLESHEET
350
2F3
  3
TSTACKALIGN
350
2F0
  3
TSTACKSIZE
350
2F1
  3
UCSBASE
350
308
  3
UCSORGBACK
350
30E
  3
UCSORGBOTTOM
350
30A
  3
UCSORGFRONT
350
30D
  3
UCSORGLEFT
350
30B
  3
UCSORGRIGHT
350
30C
  3
UCSORGTOP
350
309
  3
UCSORTHOREF
350
306
  3
UCSORTHOVIEW
350
307
  3
VERSIONGUID
350
2FB
  0
DICTIONARY
  5
310
102
{ACAD_REACTORS
330
C
102
}
330
C
100
AcDbDictionary
  3
CANNOSCALE
350
31B
  3
CMLEADERSTYLE
350
312
  3
CTABLESTYLE
350
311
  3
DIMASSOC
350
317
  3
HIDETEXT
350
318
  3
MSLTSCALE
350
31C
  3
PSOLHEIGHT
350
314
  3
PSOLWIDTH
350
313
  0
XRECORD
  5
31A
102
{ACAD_REACTORS
330
319
102
}
330
319
100
AcDbXrecord
102
VTR_0.000_0.000_1.000_1.000_VISUALSTYLE
340
2F
102
VTR_0.000_0.000_1.000_1.000_GRIDDISPLAY
 70
     3
102
VTR_0.000_0.000_1.000_1.000_GRIDMAJOR
 70
     5
102
VTR_0.000_0.000_1.000_1.000_DEFAULTLIGHTING
280
     1
102
VTR_0.000_0.000_1.000_1.000_DEFAULTLIGHTINGTYPE
 70
     1
102
VTR_0.000_0.000_1.000_1.000_BRIGHTNESS
141
0.0
102
VTR_0.000_0.000_1.000_1.000_CONTRAST
142
0.0
  0
MATERIAL
  5
45
102
{ACAD_REACTORS
330
43
102
}
102
{ACAD_XDICTIONARY
360
31F
102
}
330
43
100
AcDbMaterial
  1
BYBLOCK
  0
MATERIAL
  5
44
102
{ACAD_REACTORS
330
43
102
}
102
{ACAD_XDICTIONARY
360
31D
102
}
330
43
100
AcDbMaterial
  1
BYLAYER
  0
MATERIAL
  5
46
102
{ACAD_REACTORS
330
43
102
}
102
{ACAD_XDICTIONARY
360
321
102
}
330
43
100
AcDbMaterial
  1
GLOBAL
  0
ACAD_PROXY_OBJECT
  5
6C
102
{ACAD_REACTORS
330
6B
102
}
330
6B
100
AcDbProxyObject
 90
      499
 91
      505
 93
      610
310
40901902A4063FBFFFFFE0000000000000020400000000000020404214DD185B99185C990000000000000104090141901A00000000000004100000000000000041025764000000000000039000
340
14
340
0
340
11
340
0
 94
        0
1001
ACAD_MLEADERVER
1070
     2
  0
MLINESTYLE
  5
18
102
{ACAD_REACTORS
330
17
102
}
330
17
100
AcDbMlineStyle
  2
Standard
 70
     0
  3

 62
   256
 51
90.0
 52
90.0
 71
     2
 49
0.5
 62
   256
  6
BYLAYER
 49
-0.5
 62
   256
  6
BYLAYER
  0
ACAD_PROXY_OBJECT
  5
48
102
{ACAD_REACTORS
330
47
102
}
330
47
100
AcDbProxyObject
 90
      499
 91
      503
 93
       41
310
903313A31580
  0
ACAD_PROXY_OBJECT
  5
49
102
{ACAD_REACTORS
330
47
102
}
330
47
100
AcDbProxyObject
 90
      499
 91
      503
 93
      105
310
903313A324000000000000004000
  0
ACAD_PROXY_OBJECT
  5
4A
102
{ACAD_REACTORS
330
47
102
}
330
47
100
AcDbProxyObject
 90
      499
 91
      503
 93
      105
310
903313A344000000000000104000
  0
ACAD_PROXY_OBJECT
  5
4B
102
{ACAD_REACTORS
330
47
102
}
330
47
100
AcDbProxyObject
 90
      499
 91
      503
 93
      105
310
903313A354000000000000144000
  0
ACAD_PROXY_OBJECT
  5
4C
102
{ACAD_REACTORS
330
47
102
}
330
47
100
AcDbProxyObject
 90
      499
 91
      503
 93
      105
310
903313A384000000000000204000
  0
ACAD_PROXY_OBJECT
  5
4D
102
{ACAD_REACTORS
330
47
102
}
330
47
100
AcDbProxyObject
 90
      499
 91
      503
 93
      113
310
904313A31304000000000000244000
  0
ACAD_PROXY_OBJECT
  5
4E
102
{ACAD_REACTORS
330
47
102
}
330
47
100
AcDbProxyObject
 90
      499
 91
      503
 93
      113
310
904313A31364000000000000304000
  0
ACAD_PROXY_OBJECT
  5
4F
102
{ACAD_REACTORS
330
47
102
}
330
47
100
AcDbProxyObject
 90
      499
 91
      503
 93
      113
310
904313A32304000000000000344000
  0
ACAD_PROXY_OBJECT
  5
50
102
{ACAD_REACTORS
330
47
102
}
330
47
100
AcDbProxyObject
 90
      499
 91
      503
 93
      113
310
904313A333040000000000003E4000
  0
ACAD_PROXY_OBJECT
  5
51
102
{ACAD_REACTORS
330
47
102
}
330
47
100
AcDbProxyObject
 90
      499
 91
      503
 93
      113
310
904313A34304000000000000444000
  0
ACAD_PROXY_OBJECT
  5
52
102
{ACAD_REACTORS
330
47
102
}
330
47
100
AcDbProxyObject
 90
      499
 91
      503
 93
      113
310
904313A35304000000000000494000
  0
ACAD_PROXY_OBJECT
  5
53
102
{ACAD_REACTORS
330
47
102
}
330
47
100
AcDbProxyObject
 90
      499
 91
      503
 93
      121
310
905313A3130304000000000000594000
  0
ACAD_PROXY_OBJECT
  5
54
102
{ACAD_REACTORS
330
47
102
}
330
47
100
AcDbProxyObject
 90
      499
 91
      503
 93
      105
310
903323A310000000000000010100
  0
ACAD_PROXY_OBJECT
  5
55
102
{ACAD_REACTORS
330
47
102
}
330
47
100
AcDbProxyObject
 90
      499
 91
      503
 93
      105
310
903343A310000000000000410100
  0
ACAD_PROXY_OBJECT
  5
56
102
{ACAD_REACTORS
330
47
102
}
330
47
100
AcDbProxyObject
 90
      499
 91
      503
 93
      105
310
903383A310000000000000810100
  0
ACAD_PROXY_OBJECT
  5
57
102
{ACAD_REACTORS
330
47
102
}
330
47
100
AcDbProxyObject
 90
      499
 91
      503
 93
      113
310
90431303A310000000000000910100
  0
ACAD_PROXY_OBJECT
  5
58
102
{ACAD_REACTORS
330
47
102
}
330
47
100
AcDbProxyObject
 90
      499
 91
      503
 93
      121
310
9053130303A310000000000001650100
  0
ACAD_PROXY_OBJECT
  5
59
102
{ACAD_REACTORS
330
47
102
}
330
47
100
AcDbProxyObject
 90
      499
 91
      503
 93
      257
310
90E312F31323822203D2031272D3022000000000000200FC000000000000284000
  0
ACAD_PROXY_OBJECT
  5
5A
102
{ACAD_REACTORS
330
47
102
}
330
47
100
AcDbProxyObject
 90
      499
 91
      503
 93
      249
310
90D312F363422203D2031272D3022000000000000240FC000000000000284000
  0
ACAD_PROXY_OBJECT
  5
5B
102
{ACAD_REACTORS
330
47
102
}
330
47
100
AcDbProxyObject
 90
      499
 91
      503
 93
      249
310
90D312F333222203D2031272D3022000000000000280FC000000000000284000
  0
ACAD_PROXY_OBJECT
  5
5C
102
{ACAD_REACTORS
330
47
102
}
330
47
100
AcDbProxyObject
 90
      499
 91
      503
 93
      249
310
90D312F313622203D2031272D30220000000000002C0FC000000000000284000
  0
ACAD_PROXY_OBJECT
  5
5D
102
{ACAD_REACTORS
330
47
102
}
330
47
100
AcDbProxyObject
 90
      499
 91
      503
 93
      249
310
90D332F333222203D2031272D30220000000000002E0FC000000000000284000
  0
ACAD_PROXY_OBJECT
  5
5E
102
{ACAD_REACTORS
330
47
102
}
330
47
100
AcDbProxyObject
 90
      499
 91
      503
 93
      241
310
90C312F3822203D2031272D3022000000000000300FC000000000000284000
  0
ACAD_PROXY_OBJECT
  5
5F
102
{ACAD_REACTORS
330
47
102
}
330
47
100
AcDbProxyObject
 90
      499
 91
      503
 93
      249
310
90D332F313622203D2031272D3022000000000000320FC000000000000284000
  0
ACAD_PROXY_OBJECT
  5
60
102
{ACAD_REACTORS
330
47
102
}
330
47
100
AcDbProxyObject
 90
      499
 91
      503
 93
      241
310
90C312F3422203D2031272D3022000000000000340FC000000000000284000
  0
ACAD_PROXY_OBJECT
  5
61
102
{ACAD_REACTORS
330
47
102
}
330
47
100
AcDbProxyObject
 90
      499
 91
      503
 93
      241
310
90C332F3822203D2031272D3022000000000000360FC000000000000284000
  0
ACAD_PROXY_OBJECT
  5
62
102
{ACAD_REACTORS
330
47
102
}
330
47
100
AcDbProxyObject
 90
      499
 91
      503
 93
      241
310
90C312F3222203D2031272D3022000000000000380FC000000000000284000
  0
ACAD_PROXY_OBJECT
  5
63
102
{ACAD_REACTORS
330
47
102
}
330
47
100
AcDbProxyObject
 90
      499
 91
      503
 93
      241
310
90C332F3422203D2031272D30220000000000003A0FC000000000000284000
  0
ACAD_PROXY_OBJECT
  5
64
102
{ACAD_REACTORS
330
47
102
}
330
47
100
AcDbProxyObject
 90
      499
 91
      503
 93
      161
310
90A3122203D2031272D30224000000000000284000
  0
ACAD_PROXY_OBJECT
  5
65
102
{ACAD_REACTORS
330
47
102
}
330
47
100
AcDbProxyObject
 90
      499
 91
      503
 93
      257
310
90E312D312F3222203D2031272D30220000000000003E0FC000000000000284000
  0
ACAD_PROXY_OBJECT
  5
66
102
{ACAD_REACTORS
330
47
102
}
330
47
100
AcDbProxyObject
 90
      499
 91
      503
 93
      225
310
90A3322203D2031272D302200000000000002100000000000000284000
  0
ACAD_PROXY_OBJECT
  5
67
102
{ACAD_REACTORS
330
47
102
}
330
47
100
AcDbProxyObject
 90
      499
 91
      503
 93
      225
310
90A3622203D2031272D302200000000000006100000000000000284000
  0
ACAD_PROXY_OBJECT
  5
68
102
{ACAD_REACTORS
330
47
102
}
330
47
100
AcDbProxyObject
 90
      499
 91
      503
 93
      249
310
90D31272D3022203D2031272D30220000000000000A100000000000000284000
  0
ACAD_PROXY_OBJECT
  5
2F
102
{ACAD_REACTORS
330
2A
102
}
330
2A
100
AcDbProxyObject
 90
      499
 91
      501
 93
      436
310
42CC9915DA5C99599C985B595049028333333333333E33F0000000000000F90107901411070040501600405405064090741402480A0340
1001
ACAD
1000
AcDbSavedByObjectVersion
1070
     0
  0
ACAD_PROXY_OBJECT
  5
32
102
{ACAD_REACTORS
330
2A
102
}
330
2A
100
AcDbProxyObject
 90
      499
 91
      501
 93
      388
310
4150985CDA58D07406404333333333333E33F0000000000000F90107A41107004050150841D405064090741402480A0350
1001
ACAD
1000
AcDbSavedByObjectVersion
1070
     0
  0
ACAD_PROXY_OBJECT
  5
36
102
{ACAD_REACTORS
330
2A
102
}
330
2A
100
AcDbProxyObject
 90
      499
 91
      501
 93
      428
310
42109C9A59DA1D195B90C409028333333333333E33F0000000000000F9010790141107004050150841D405064090741402480A029950
1001
ACAD
1000
AcDbSavedByObjectVersion
1070
     0
  0
ACAD_PROXY_OBJECT
  5
3A
102
{ACAD_REACTORS
330
2A
102
}
330
2A
100
AcDbProxyObject
 90
      499
 91
      501
 93
      452
310
42D0DBDB1BDC90DA185B99D95104090240C333333333333E33F0000000000000F90108901411070040501508421405064090741402480A0350
1001
ACAD
1000
AcDbSavedByObjectVersion
1070
     0
  0
ACAD_PROXY_OBJECT
  5
34
102
{ACAD_REACTORS
330
2A
102
}
330
2A
100
AcDbProxyObject
 90
      499
 91
      501
 93
      500
310
4290DBDB98D95C1D1D585B10940D028333333333333E33F0000000000000F90107902409070040501000000000018199010841D405064090740C02480A0340
1001
ACAD
1000
AcDbSavedByObjectVersion
1070
     0
  0
ACAD_PROXY_OBJECT
  5
35
102
{ACAD_REACTORS
330
2A
102
}
330
2A
100
AcDbProxyObject
 90
      499
 91
      501
 93
      412
310
40D11A5B50B409028333333333333E33F0000000000000F9010790141107004050150841D405064090741402480A02677FFFFFD0
1001
ACAD
1000
AcDbSavedByObjectVersion
1070
     0
  0
ACAD_PROXY_OBJECT
  5
3D
102
{ACAD_REACTORS
330
2A
102
}
330
2A
100
AcDbProxyObject
 90
      499
 91
      501
 93
      452
310
43115919D950DBDB1BDC93D999916409028333333333333E33F0000000000000F9010790141107004050150841D405064090741402480A0350
1001
ACAD
1000
AcDbSavedByObjectVersion
1070
     0
  0
ACAD_PROXY_OBJECT
  5
39
102
{ACAD_REACTORS
330
2A
102
}
330
2A
100
AcDbProxyObject
 90
      499
 91
      501
 93
      444
310
42D19858D95C185D1D195C9B90F409028333333333333E33F0000000000000F9010790141107004050150841D405064090741402480A0350
1001
ACAD
1000
AcDbSavedByObjectVersion
1070
     0
  0
ACAD_PROXY_OBJECT
  5
2B
102
{ACAD_REACTORS
330
2A
102
}
330
2A
100
AcDbProxyObject
 90
      499
 91
      501
 93
      380
310
41119B185D240901404333333333333E33F0000000000000F9010740A907004050150841D405064090741402480A1B50
1001
ACAD
1000
AcDbSavedByObjectVersion
1070
     0
  0
ACAD_PROXY_OBJECT
  5
2C
102
{ACAD_REACTORS
330
2A
102
}
330
2A
100
AcDbProxyObject
 90
      499
 91
      501
 93
      468
310
43519B185D15DA5D1A115919D95CD0140901404333333333333E33F0000000000000F90107409019070040501600405405064090741402480A1B50
1001
ACAD
1000
AcDbSavedByObjectVersion
1070
     0
  0
ACAD_PROXY_OBJECT
  5
2D
102
{ACAD_REACTORS
330
2A
102
}
330
2A
100
AcDbProxyObject
 90
      499
 91
      501
 93
      404
310
41D1DBDD5C985D5910240902404333333333333E33F0000000000000F9010740A9070040501641D405064090741402480A1B50
1001
ACAD
1000
AcDbSavedByObjectVersion
1070
     0
  0
ACAD_PROXY_OBJECT
  5
2E
102
{ACAD_REACTORS
330
2A
102
}
330
2A
100
AcDbProxyObject
 90
      499
 91
      501
 93
      492
310
4411DBDD5C985D5915DA5D1A115919D95CD0340902404333333333333E33F0000000000000F90107409019070040501600405405064090741402480A1B50
1001
ACAD
1000
AcDbSavedByObjectVersion
1070
     0
  0
ACAD_PROXY_OBJECT
  5
31
102
{ACAD_REACTORS
330
2A
102
}
330
2A
100
AcDbProxyObject
 90
      499
 91
      501
 93
      476
310
41921A5919195B90640502408333333333333E33F0000000000000F901079024090700405020000000000001110200405405064090740C02480A0340
1001
ACAD
1000
AcDbSavedByObjectVersion
1070
     0
  0
ACAD_PROXY_OBJECT
  5
3B
102
{ACAD_REACTORS
330
2A
102
}
330
2A
100
AcDbProxyObject
 90
      499
 91
      501
 93
      428
310
42529A5D1D195C93D999914409028333333333333E33F0000000000000F9010790141107004050150A41D405064090741402480A0350
1001
ACAD
1000
AcDbSavedByObjectVersion
1070
     0
  0
ACAD_PROXY_OBJECT
  5
38
102
{ACAD_REACTORS
330
2A
102
}
330
2A
100
AcDbProxyObject
 90
      499
 91
      501
 93
      444
310
42D31A5B995C185D1D195C9B90E409028333333333333E33F0000000000000F9010790141107004050750841D405064090741402483A0350
1001
ACAD
1000
AcDbSavedByObjectVersion
1070
     0
  0
ACAD_PROXY_OBJECT
  5
3C
102
{ACAD_REACTORS
330
2A
102
}
330
2A
100
AcDbProxyObject
 90
      499
 91
      501
 93
      444
310
42D3DD995C9A185B99D3D999915409028333333333333E33F0000000000000F9010790141107004050150941D405064090741402480A0350
1001
ACAD
1000
AcDbSavedByObjectVersion
1070
     0
  0
ACAD_PROXY_OBJECT
  5
33
102
{ACAD_REACTORS
330
2A
102
}
330
2A
100
AcDbProxyObject
 90
      499
 91
      501
 93
      428
310
425499585B1A5CDD1A58D08409038333333333333E33F0000000000000F9010740A907004050150800405405064090740C02480A1B40
1001
ACAD
1000
AcDbSavedByObjectVersion
1070
     0
  0
ACAD_PROXY_OBJECT
  5
42
102
{ACAD_REACTORS
330
2A
102
}
330
2A
100
AcDbProxyObject
 90
      499
 91
      501
 93
      420
310
4194DA1859195911B40902404333333333333E33F0000000000000F9010740A41107004050150800405405064090840C02480A0B40
1001
ACAD
1000
AcDbSavedByObjectVersion
1070
     0
  0
ACAD_PROXY_OBJECT
  5
41
102
{ACAD_REACTORS
330
2A
102
}
330
2A
100
AcDbProxyObject
 90
      499
 91
      501
 93
      516
310
4454DA18591959081DDA5D1A08195919D95CD1A40902404333333333333E33F0000000000000F901074090142907004050250800405405064090740C02480A0B40
1001
ACAD
1000
AcDbSavedByObjectVersion
1070
     0
  0
ACAD_PROXY_OBJECT
  5
3E
102
{ACAD_REACTORS
330
2A
102
}
330
2A
100
AcDbProxyObject
 90
      499
 91
      501
 93
      532
310
4394DA1859195CC81BD98811DC985E5174090240C333333333333E33F0000000000000F901079024090741D01000000000000111010841D405064090740C02480A0340
1001
ACAD
1000
AcDbSavedByObjectVersion
1070
     0
  0
ACAD_PROXY_OBJECT
  5
3F
102
{ACAD_REACTORS
330
2A
102
}
330
2A
100
AcDbProxyObject
 90
      499
 91
      501
 93
      476
310
41D4DAD95D18DA1E51840502408333333333333E33F0000000000000F901079024090741D01000000000000111010B41D405064090741802480A0340
1001
ACAD
1000
AcDbSavedByObjectVersion
1070
     0
  0
ACAD_PROXY_OBJECT
  5
37
102
{ACAD_REACTORS
330
2A
102
}
330
2A
100
AcDbProxyObject
 90
      499
 91
      501
 93
      412
310
41D51A1A58DAD95B90D409028333333333333E33F0000000000000F9010790141107004050150C41D405064090741402480A0350
1001
ACAD
1000
AcDbSavedByObjectVersion
1070
     0
  0
ACAD_PROXY_OBJECT
  5
30
102
{ACAD_REACTORS
330
2A
102
}
330
2A
100
AcDbProxyObject
 90
      499
 91
      501
 93
      420
310
4255DA5C99599C985B595059028333333333333E33F0000000000000F90107901411070040501600405405064090740C02480A0340
1001
ACAD
1000
AcDbSavedByObjectVersion
1070
     0
  0
ACAD_PROXY_OBJECT
  5
40
102
{ACAD_REACTORS
330
2A
102
}
330
2A
100
AcDbProxyObject
 90
      499
 91
      501
 93
      404
310
41560B54985E51940902404000000000000E03F0000000000000F9010740501907004050150841D405064090740C02480A1B40
1001
ACAD
1000
AcDbSavedByObjectVersion
1070
     0
  0
XRECORD
  5
2F9
102
{ACAD_REACTORS
330
2EF
102
}
330
2EF
100
AcDbXrecord
340
0
  0
XRECORD
  5
2F8
102
{ACAD_REACTORS
330
2EF
102
}
330
2EF
100
AcDbXrecord
 90
        0
  0
XRECORD
  5
30F
102
{ACAD_REACTORS
330
2EF
102
}
330
2EF
100
AcDbXrecord
1000
DSTYLE
1002
{
1070
   340
340
11
1002
}
  0
XRECORD
  5
2FA
102
{ACAD_REACTORS
330
2EF
102
}
330
2EF
100
AcDbXrecord
  1
{CE53081B-1530-401F-9A09-3766BB2D3E5B}
  0
XRECORD
  5
2F2
102
{ACAD_REACTORS
330
2EF
102
}
330
2EF
100
AcDbXrecord
  1

  0
XRECORD
  5
2F7
102
{ACAD_REACTORS
330
2EF
102
}
330
2EF
100
AcDbXrecord
 90
        4
  0
XRECORD
  5
2F4
102
{ACAD_REACTORS
330
2EF
102
}
330
2EF
100
AcDbXrecord
340
1A
  0
XRECORD
  5
2F6
102
{ACAD_REACTORS
330
2EF
102
}
330
2EF
100
AcDbXrecord
 90
    10781
  0
XRECORD
  5
2F5
102
{ACAD_REACTORS
330
2EF
102
}
330
2EF
100
AcDbXrecord
340
19
  0
XRECORD
  5
2FC
102
{ACAD_REACTORS
330
2EF
102
}
330
2EF
100
AcDbXrecord
 40
0.0
  0
XRECORD
  5
2FF
102
{ACAD_REACTORS
330
2EF
102
}
330
2EF
100
AcDbXrecord
340
0
  0
XRECORD
  5
305
102
{ACAD_REACTORS
330
2EF
102
}
330
2EF
100
AcDbXrecord
 10
0.0
 20
0.0
 30
0.0
  0
XRECORD
  5
301
102
{ACAD_REACTORS
330
2EF
102
}
330
2EF
100
AcDbXrecord
 10
0.0
 20
0.0
 30
0.0
  0
XRECORD
  5
304
102
{ACAD_REACTORS
330
2EF
102
}
330
2EF
100
AcDbXrecord
 10
0.0
 20
0.0
 30
0.0
  0
XRECORD
  5
302
102
{ACAD_REACTORS
330
2EF
102
}
330
2EF
100
AcDbXrecord
 10
0.0
 20
0.0
 30
0.0
  0
XRECORD
  5
303
102
{ACAD_REACTORS
330
2EF
102
}
330
2EF
100
AcDbXrecord
 10
0.0
 20
0.0
 30
0.0
  0
XRECORD
  5
300
102
{ACAD_REACTORS
330
2EF
102
}
330
2EF
100
AcDbXrecord
 10
0.0
 20
0.0
 30
0.0
  0
XRECORD
  5
2FD
102
{ACAD_REACTORS
330
2EF
102
}
330
2EF
100
AcDbXrecord
340
0
  0
XRECORD
  5
2FE
102
{ACAD_REACTORS
330
2EF
102
}
330
2EF
100
AcDbXrecord
 70
     0
  0
XRECORD
  5
2F3
102
{ACAD_REACTORS
330
2EF
102
}
330
2EF
100
AcDbXrecord
  1

  0
XRECORD
  5
2F0
102
{ACAD_REACTORS
330
2EF
102
}
330
2EF
100
AcDbXrecord
 90
        1
  0
XRECORD
  5
2F1
102
{ACAD_REACTORS
330
2EF
102
}
330
2EF
100
AcDbXrecord
 90
       70
  0
XRECORD
  5
308
102
{ACAD_REACTORS
330
2EF
102
}
330
2EF
100
AcDbXrecord
340
0
  0
XRECORD
  5
30E
102
{ACAD_REACTORS
330
2EF
102
}
330
2EF
100
AcDbXrecord
 10
0.0
 20
0.0
 30
0.0
  0
XRECORD
  5
30A
102
{ACAD_REACTORS
330
2EF
102
}
330
2EF
100
AcDbXrecord
 10
0.0
 20
0.0
 30
0.0
  0
XRECORD
  5
30D
102
{ACAD_REACTORS
330
2EF
102
}
330
2EF
100
AcDbXrecord
 10
0.0
 20
0.0
 30
0.0
  0
XRECORD
  5
30B
102
{ACAD_REACTORS
330
2EF
102
}
330
2EF
100
AcDbXrecord
 10
0.0
 20
0.0
 30
0.0
  0
XRECORD
  5
30C
102
{ACAD_REACTORS
330
2EF
102
}
330
2EF
100
AcDbXrecord
 10
0.0
 20
0.0
 30
0.0
  0
XRECORD
  5
309
102
{ACAD_REACTORS
330
2EF
102
}
330
2EF
100
AcDbXrecord
 10
0.0
 20
0.0
 30
0.0
  0
XRECORD
  5
306
102
{ACAD_REACTORS
330
2EF
102
}
330
2EF
100
AcDbXrecord
340
0
  0
XRECORD
  5
307
102
{ACAD_REACTORS
330
2EF
102
}
330
2EF
100
AcDbXrecord
 70
     0
  0
XRECORD
  5
2FB
102
{ACAD_REACTORS
330
2EF
102
}
330
2EF
100
AcDbXrecord
  1
{FAEB1C32-E019-11D5-929B-00C0DF256EC4}
  0
DICTIONARYVAR
  5
31B
102
{ACAD_REACTORS
330
310
102
}
330
310
100
DictionaryVariables
280
     0
  1
1:1
  0
DICTIONARYVAR
  5
312
102
{ACAD_REACTORS
330
310
102
}
330
310
100
DictionaryVariables
280
     0
  1
Standard
  0
DICTIONARYVAR
  5
311
102
{ACAD_REACTORS
330
310
102
}
330
310
100
DictionaryVariables
280
     0
  1
Standard
  0
DICTIONARYVAR
  5
317
102
{ACAD_REACTORS
330
310
102
}
330
310
100
DictionaryVariables
280
     0
  1
2
  0
DICTIONARYVAR
  5
318
102
{ACAD_REACTORS
330
310
102
}
330
310
100
DictionaryVariables
280
     0
  1
1
  0
DICTIONARYVAR
  5
31C
102
{ACAD_REACTORS
330
310
102
}
330
310
100
DictionaryVariables
280
     0
  1
1
  0
DICTIONARYVAR
  5
314
102
{ACAD_REACTORS
330
310
102
}
330
310
100
DictionaryVariables
280
     0
  1
80.000000
  0
DICTIONARYVAR
  5
313
102
{ACAD_REACTORS
330
310
102
}
330
310
100
DictionaryVariables
280
     0
  1
5.000000
  0
DICTIONARY
  5
31F
330
45
100
AcDbDictionary
280
     1
  3
ACAD_XREC_ROUNDTRIP
360
320
  0
DICTIONARY
  5
31D
330
44
100
AcDbDictionary
280
     1
  3
ACAD_XREC_ROUNDTRIP
360
31E
  0
DICTIONARY
  5
321
330
46
100
AcDbDictionary
280
     1
  3
ACAD_XREC_ROUNDTRIP
360
322
  0
XRECORD
  5
320
102
{ACAD_REACTORS
330
31F
102
}
330
31F
100
AcDbXrecord
102
MATERIAL
148
0.0
149
0.0
149
0.0
 93
        0
 94
      127
282
     0
 72
     1
 77
     1
171
     1
175
     1
179
     1
273
     0
  0
XRECORD
  5
31E
102
{ACAD_REACTORS
330
31D
102
}
330
31D
100
AcDbXrecord
102
MATERIAL
148
0.0
149
0.0
149
0.0
 93
        0
 94
      127
282
     0
 72
     1
 77
     1
171
     1
175
     1
179
     1
273
     0
  0
XRECORD
  5
322
102
{ACAD_REACTORS
330
321
102
}
330
321
100
AcDbXrecord
102
MATERIAL
148
0.0
149
0.0
149
0.0
 93
        0
 94
      127
282
     0
 72
     1
 77
     1
171
     1
175
     1
179
     1
273
     0
  0
ENDSEC
  0
EOF
