  0
SECTION
  2
HEADER
  9
$ACADVER
  1
AC1014
  9
$ACADMAINTVER
 70
     9
  9
$DWGCODEPAGE
  3
ANSI_932
  9
$INSBASE
 10
0.0
 20
0.0
 30
0.0
  9
$EXTMIN
 10
52.00000000000001
 20
9.0
 30
0.0
  9
$EXTMAX
 10
373.0
 20
284.5000000000028
 30
0.0
  9
$LIMMIN
 10
0.0
 20
0.0
  9
$LIMMAX
 10
420.0
 20
297.0
  9
$ORTHOMODE
 70
     0
  9
$REGENMODE
 70
     1
  9
$FILLMODE
 70
     1
  9
$QTEXTMODE
 70
     0
  9
$MIRRTEXT
 70
     1
  9
$DRAGMODE
 70
     2
  9
$LTSCALE
 40
1.0
  9
$OSMODE
 70
    37
  9
$ATTMODE
 70
     1
  9
$TEXTSIZE
 40
2.5
  9
$TRACEWID
 40
1.0
  9
$TEXTSTYLE
  7
STANDARD
  9
$CLAYER
  8
LAY-1
  9
$CELTYPE
  6
BYLAYER
  9
$CECOLOR
 62
   256
  9
$CELTSCALE
 40
1.0
  9
$DELOBJ
 70
     1
  9
$DISPSILH
 70
     0
  9
$DIMSCALE
 40
1.0
  9
$DIMASZ
 40
2.5
  9
$DIMEXO
 40
0.625
  9
$DIMDLI
 40
3.75
  9
$DIMRND
 40
0.0
  9
$DIMDLE
 40
0.0
  9
$DIMEXE
 40
1.25
  9
$DIMTP
 40
0.0
  9
$DIMTM
 40
0.0
  9
$DIMTXT
 40
2.5
  9
$DIMCEN
 40
2.5
  9
$DIMTSZ
 40
0.0
  9
$DIMTOL
 70
     0
  9
$DIMLIM
 70
     0
  9
$DIMTIH
 70
     0
  9
$DIMTOH
 70
     0
  9
$DIMSE1
 70
     0
  9
$DIMSE2
 70
     0
  9
$DIMTAD
 70
     1
  9
$DIMZIN
 70
     8
  9
$DIMBLK
  1

  9
$DIMASO
 70
     1
  9
$DIMSHO
 70
     1
  9
$DIMPOST
  1

  9
$DIMAPOST
  1

  9
$DIMALT
 70
     0
  9
$DIMALTD
 70
     3
  9
$DIMALTF
 40
0.03937007874016
  9
$DIMLFAC
 40
1.0
  9
$DIMTOFL
 70
     1
  9
$DIMTVP
 40
0.0
  9
$DIMTIX
 70
     0
  9
$DIMSOXD
 70
     0
  9
$DIMSAH
 70
     0
  9
$DIMBLK1
  1

  9
$DIMBLK2
  1

  9
$DIMSTYLE
  2
ISO-25
  9
$DIMCLRD
 70
     0
  9
$DIMCLRE
 70
     0
  9
$DIMCLRT
 70
     0
  9
$DIMTFAC
 40
1.0
  9
$DIMGAP
 40
0.625
  9
$DIMJUST
 70
     0
  9
$DIMSD1
 70
     0
  9
$DIMSD2
 70
     0
  9
$DIMTOLJ
 70
     0
  9
$DIMTZIN
 70
     8
  9
$DIMALTZ
 70
     0
  9
$DIMALTTZ
 70
     0
  9
$DIMFIT
 70
     3
  9
$DIMUPT
 70
     0
  9
$DIMUNIT
 70
     2
  9
$DIMDEC
 70
     2
  9
$DIMTDEC
 70
     2
  9
$DIMALTU
 70
     2
  9
$DIMALTTD
 70
     3
  9
$DIMTXSTY
  7
STANDARD
  9
$DIMAUNIT
 70
     0
  9
$LUNITS
 70
     2
  9
$LUPREC
 70
     4
  9
$SKETCHINC
 40
1.0
  9
$FILLETRAD
 40
10.0
  9
$AUNITS
 70
     0
  9
$AUPREC
 70
     0
  9
$MENU
  1
.
  9
$ELEVATION
 40
0.0
  9
$PELEVATION
 40
0.0
  9
$THICKNESS
 40
0.0
  9
$LIMCHECK
 70
     0
  9
$CHAMFERA
 40
0.0
  9
$CHAMFERB
 40
0.0
  9
$CHAMFERC
 40
0.0
  9
$CHAMFERD
 40
0.0
  9
$SKPOLY
 70
     0
  9
$TDCREATE
 40
2457423.453542616
  9
$TDUPDATE
 40
2457423.453542732
  9
$TDINDWG
 40
0.0000000116
  9
$TDUSRTIMER
 40
0.0000000116
  9
$USRTIMER
 70
     1
  9
$ANGBASE
 50
0.0
  9
$ANGDIR
 70
     0
  9
$PDMODE
 70
     0
  9
$PDSIZE
 40
0.0
  9
$PLINEWID
 40
0.0
  9
$COORDS
 70
     1
  9
$SPLFRAME
 70
     0
  9
$SPLINETYPE
 70
     6
  9
$SPLINESEGS
 70
     8
  9
$ATTDIA
 70
     0
  9
$ATTREQ
 70
     1
  9
$HANDLING
 70
     1
  9
$HANDSEED
  5
252
  9
$SURFTAB1
 70
     6
  9
$SURFTAB2
 70
     6
  9
$SURFTYPE
 70
     6
  9
$SURFU
 70
     6
  9
$SURFV
 70
     6
  9
$UCSNAME
  2

  9
$UCSORG
 10
0.0
 20
0.0
 30
0.0
  9
$UCSXDIR
 10
1.0
 20
0.0
 30
0.0
  9
$UCSYDIR
 10
0.0
 20
1.0
 30
0.0
  9
$PUCSNAME
  2

  9
$PUCSORG
 10
0.0
 20
0.0
 30
0.0
  9
$PUCSXDIR
 10
1.0
 20
0.0
 30
0.0
  9
$PUCSYDIR
 10
0.0
 20
1.0
 30
0.0
  9
$USERI1
 70
     0
  9
$USERI2
 70
     0
  9
$USERI3
 70
     0
  9
$USERI4
 70
     0
  9
$USERI5
 70
     0
  9
$USERR1
 40
0.0
  9
$USERR2
 40
0.0
  9
$USERR3
 40
0.0
  9
$USERR4
 40
0.0
  9
$USERR5
 40
0.0
  9
$WORLDVIEW
 70
     1
  9
$SHADEDGE
 70
     3
  9
$SHADEDIF
 70
    70
  9
$TILEMODE
 70
     1
  9
$MAXACTVP
 70
    64
  9
$PINSBASE
 10
0.0
 20
0.0
 30
0.0
  9
$PLIMCHECK
 70
     0
  9
$PEXTMIN
 10
1.000000000000000E+20
 20
1.000000000000000E+20
 30
1.000000000000000E+20
  9
$PEXTMAX
 10
-1.000000000000000E+20
 20
-1.000000000000000E+20
 30
-1.000000000000000E+20
  9
$PLIMMIN
 10
0.0
 20
0.0
  9
$PLIMMAX
 10
420.0
 20
297.0
  9
$UNITMODE
 70
     0
  9
$VISRETAIN
 70
     1
  9
$PLINEGEN
 70
     0
  9
$PSLTSCALE
 70
     1
  9
$TREEDEPTH
 70
  3020
  9
$PICKSTYLE
 70
     1
  9
$CMLSTYLE
  2
STANDARD
  9
$CMLJUST
 70
     0
  9
$CMLSCALE
 40
20.0
  9
$PROXYGRAPHICS
 70
     1
  9
$MEASUREMENT
 70
     1
  0
ENDSEC
  0
SECTION
  2
CLASSES
  0
CLASS
  1
ACDBDICTIONARYWDFLT
  2
AcDbDictionaryWithDefault
  3
ObjectDBX Classes
 90
        0
280
     0
281
     0
  0
CLASS
  1
VISUALSTYLE
  2
AcDbVisualStyle
  3
ObjectDBX Classes
 90
     4095
280
     0
281
     0
  0
CLASS
  1
MATERIAL
  2
AcDbMaterial
  3
ObjectDBX Classes
 90
     1153
280
     0
281
     0
  0
CLASS
  1
SCALE
  2
AcDbScale
  3
ObjectDBX Classes
 90
     1153
280
     0
281
     0
  0
CLASS
  1
SUN
  2
AcDbSun
  3
SCENEOE
 90
     1153
280
     0
281
     0
  0
CLASS
  1
DICTIONARYVAR
  2
AcDbDictionaryVar
  3
ObjectDBX Classes
 90
        0
280
     0
281
     0
  0
CLASS
  1
XRECORD
  2
AcDbXrecord
  3
ObjectDBX Classes
 90
        0
280
     0
281
     0
  0
CLASS
  1
LWPOLYLINE
  2
AcDbPolyline
  3
ObjectDBX Classes
 90
        0
280
     0
281
     1
  0
CLASS
  1
HATCH
  2
AcDbHatch
  3
ObjectDBX Classes
 90
        0
280
     0
281
     1
  0
CLASS
  1
ACDBPLACEHOLDER
  2
AcDbPlaceHolder
  3
ObjectDBX Classes
 90
        0
280
     0
281
     0
  0
CLASS
  1
LAYOUT
  2
AcDbLayout
  3
ObjectDBX Classes
 90
        0
280
     0
281
     0
  0
ENDSEC
  0
SECTION
  2
TABLES
  0
TABLE
  2
VPORT
  5
8
330
0
100
AcDbSymbolTable
 70
     1
  0
VPORT
  5
29
330
8
100
AcDbSymbolTableRecord
100
AcDbViewportTableRecord
  2
*ACTIVE
 70
     0
 10
0.0
 20
0.0
 11
1.0
 21
1.0
 12
212.5
 22
146.7500000000014
 13
0.0
 23
0.0
 14
10.0
 24
10.0
 15
10.0
 25
10.0
 16
0.0
 26
0.0
 36
1.0
 17
0.0
 27
0.0
 37
0.0
 40
275.5000000000028
 41
1.165154264972765
 42
50.0
 43
0.0
 44
0.0
 50
0.0
 51
0.0
 71
     0
 72
  1000
 73
     1
 74
     3
 75
     0
 76
     0
 77
     0
 78
     0
  0
ENDTAB
  0
TABLE
  2
LTYPE
  5
5
330
0
100
AcDbSymbolTable
 70
    13
  0
LTYPE
  5
14
330
5
100
AcDbSymbolTableRecord
100
AcDbLinetypeTableRecord
  2
BYBLOCK
 70
     0
  3

 72
    65
 73
     0
 40
0.0
  0
LTYPE
  5
15
330
5
100
AcDbSymbolTableRecord
100
AcDbLinetypeTableRecord
  2
BYLAYER
 70
     0
  3

 72
    65
 73
     0
 40
0.0
  0
LTYPE
  5
16
330
5
100
AcDbSymbolTableRecord
100
AcDbLinetypeTableRecord
  2
CONTINUOUS
 70
     0
  3
Solid line
 72
    65
 73
     0
 40
0.0
  0
LTYPE
  5
6A
330
5
100
AcDbSymbolTableRecord
100
AcDbLinetypeTableRecord
  2
EXLTYPE1
 70
     0
  3
破線
 72
    65
 73
     2
 40
3.8
 49
3.0
 74
     0
 49
-0.8
 74
     0
  0
LTYPE
  5
6B
330
5
100
AcDbSymbolTableRecord
100
AcDbLinetypeTableRecord
  2
EXLTYPE2
 70
     0
  3
点線
 72
    65
 73
     2
 40
2.0
 49
1.0
 74
     0
 49
-1.0
 74
     0
  0
LTYPE
  5
6C
330
5
100
AcDbSymbolTableRecord
100
AcDbLinetypeTableRecord
  2
EXLTYPE3
 70
     0
  3
一点鎖線
 72
    65
 73
     4
 40
13.0
 49
10.0
 74
     0
 49
-1.0
 74
     0
 49
1.0
 74
     0
 49
-1.0
 74
     0
  0
LTYPE
  5
6D
330
5
100
AcDbSymbolTableRecord
100
AcDbLinetypeTableRecord
  2
EXLTYPE4
 70
     0
  3
二点鎖線
 72
    65
 73
     6
 40
15.0
 49
10.0
 74
     0
 49
-1.0
 74
     0
 49
1.0
 74
     0
 49
-1.0
 74
     0
 49
1.0
 74
     0
 49
-1.0
 74
     0
  0
LTYPE
  5
6E
330
5
100
AcDbSymbolTableRecord
100
AcDbLinetypeTableRecord
  2
EXLTYPE5
 70
     0
  3
三点鎖線
 72
    65
 73
     8
 40
37.0
 49
30.0
 74
     0
 49
-1.0
 74
     0
 49
1.0
 74
     0
 49
-1.0
 74
     0
 49
1.0
 74
     0
 49
-1.0
 74
     0
 49
1.0
 74
     0
 49
-1.0
 74
     0
  0
LTYPE
  5
6F
330
5
100
AcDbSymbolTableRecord
100
AcDbLinetypeTableRecord
  2
EXLTYPE6
 70
     0
  3
四点鎖線
 72
    65
 73
    10
 40
39.0
 49
30.0
 74
     0
 49
-1.0
 74
     0
 49
1.0
 74
     0
 49
-1.0
 74
     0
 49
1.0
 74
     0
 49
-1.0
 74
     0
 49
1.0
 74
     0
 49
-1.0
 74
     0
 49
1.0
 74
     0
 49
-1.0
 74
     0
  0
LTYPE
  5
70
330
5
100
AcDbSymbolTableRecord
100
AcDbLinetypeTableRecord
  2
EXLTYPE7
 70
     0
  3
一点鎖線2
 72
    65
 73
     4
 40
7.100000000000001
 49
5.0
 74
     0
 49
-0.7
 74
     0
 49
0.7
 74
     0
 49
-0.7
 74
     0
  0
LTYPE
  5
71
330
5
100
AcDbSymbolTableRecord
100
AcDbLinetypeTableRecord
  2
EXLTYPE8
 70
     0
  3
二点鎖線3
 72
    65
 73
     6
 40
4.5
 49
2.0
 74
     0
 49
-0.5
 74
     0
 49
0.5
 74
     0
 49
-0.5
 74
     0
 49
0.5
 74
     0
 49
-0.5
 74
     0
  0
LTYPE
  5
72
330
5
100
AcDbSymbolTableRecord
100
AcDbLinetypeTableRecord
  2
EXLTYPE9
 70
     0
  3
二点鎖線2
 72
    65
 73
     6
 40
7.5
 49
5.0
 74
     0
 49
-0.5
 74
     0
 49
0.5
 74
     0
 49
-0.5
 74
     0
 49
0.5
 74
     0
 49
-0.5
 74
     0
  0
LTYPE
  5
73
330
5
100
AcDbSymbolTableRecord
100
AcDbLinetypeTableRecord
  2
EXLTYPE10
 70
     0
  3
二点鎖線3
 72
    65
 73
     6
 40
4.5
 49
2.0
 74
     0
 49
-0.5
 74
     0
 49
0.5
 74
     0
 49
-0.5
 74
     0
 49
0.5
 74
     0
 49
-0.5
 74
     0
  0
LTYPE
  5
74
330
5
100
AcDbSymbolTableRecord
100
AcDbLinetypeTableRecord
  2
EXLTYPE11
 70
     0
  3
二点鎖線2
 72
    65
 73
     6
 40
7.5
 49
5.0
 74
     0
 49
-0.5
 74
     0
 49
0.5
 74
     0
 49
-0.5
 74
     0
 49
0.5
 74
     0
 49
-0.5
 74
     0
  0
LTYPE
  5
75
330
5
100
AcDbSymbolTableRecord
100
AcDbLinetypeTableRecord
  2
EXLTYPE12
 70
     0
  3
点線2
 72
    65
 73
     2
 40
1.0
 49
0.5
 74
     0
 49
-0.5
 74
     0
  0
ENDTAB
  0
TABLE
  2
LAYER
  5
2
330
0
100
AcDbSymbolTable
 70
     2
  0
LAYER
  5
10
330
2
100
AcDbSymbolTableRecord
100
AcDbLayerTableRecord
  2
0
 70
     0
 62
     7
  6
CONTINUOUS
  0
LAYER
  5
78
330
2
100
AcDbSymbolTableRecord
100
AcDbLayerTableRecord
  2
LAY-1
 70
     0
 62
     7
  6
CONTINUOUS
  0
ENDTAB
  0
TABLE
  2
STYLE
  5
3
330
0
100
AcDbSymbolTable
 70
     4
  0
STYLE
  5
11
330
3
100
AcDbSymbolTableRecord
100
AcDbTextStyleTableRecord
  2
STANDARD
 70
     0
 40
0.0
 41
1.0
 50
0.0
 71
     0
 42
2.5
  3
monotxt
  4
extfont
  0
STYLE
  5
76
330
3
100
AcDbSymbolTableRecord
100
AcDbTextStyleTableRecord
  2
EXCADSTD
 70
     0
 40
0.0
 41
1.0
 50
0.0
 71
     0
 42
2.5
  3
monotxt
  4
extfont
  0
STYLE
  5
77
330
3
100
AcDbSymbolTableRecord
100
AcDbTextStyleTableRecord
  2
EXCADVERT
 70
     4
 40
0.0
 41
1.0
 50
0.0
 71
     0
 42
2.5
  3
monotxt
  4
extfont
  0
STYLE
  5
21C
330
3
100
AcDbSymbolTableRecord
100
AcDbTextStyleTableRecord
  2
EXCADTTF1
 70
     0
 40
0.0
 41
1.0
 50
0.0
 71
     0
 42
2.5
  3
msmincho.ttc
  4

1001
ACAD
1000
MS Mincho
1071
    32785
  0
ENDTAB
  0
TABLE
  2
VIEW
  5
6
330
0
100
AcDbSymbolTable
 70
     0
  0
ENDTAB
  0
TABLE
  2
UCS
  5
7
330
0
100
AcDbSymbolTable
 70
     0
  0
ENDTAB
  0
TABLE
  2
APPID
  5
9
330
0
100
AcDbSymbolTable
 70
     1
  0
APPID
  5
12
330
9
100
AcDbSymbolTableRecord
100
AcDbRegAppTableRecord
  2
ACAD
 70
     0
  0
ENDTAB
  0
TABLE
  2
DIMSTYLE
  5
A
330
0
100
AcDbSymbolTable
 70
     1
  0
DIMSTYLE
105
27
330
A
100
AcDbSymbolTableRecord
100
AcDbDimStyleTableRecord
  2
ISO-25
 70
     0
  3

  4

  5

  6

  7

 40
1.0
 41
2.5
 42
0.625
 43
3.75
 44
1.25
 45
0.0
 46
0.0
 47
0.0
 48
0.0
140
2.5
141
2.5
142
0.0
143
0.03937007874016
144
1.0
145
0.0
146
1.0
147
0.625
 71
     0
 72
     0
 73
     0
 74
     0
 75
     0
 76
     0
 77
     1
 78
     8
170
     0
171
     3
172
     1
173
     0
174
     0
175
     0
176
     0
177
     0
178
     0
270
     2
271
     2
272
     2
273
     2
274
     3
340
11
275
     0
280
     0
281
     0
282
     0
283
     0
284
     8
285
     0
286
     0
287
     5
288
     0
  0
ENDTAB
  0
TABLE
  2
BLOCK_RECORD
  5
1
330
0
100
AcDbSymbolTable
 70
    15
  0
BLOCK_RECORD
  5
1F
330
1
100
AcDbSymbolTableRecord
100
AcDbBlockTableRecord
  2
*MODEL_SPACE
  0
BLOCK_RECORD
  5
1B
330
1
100
AcDbSymbolTableRecord
100
AcDbBlockTableRecord
  2
*PAPER_SPACE
  0
BLOCK_RECORD
  5
79
330
1
100
AcDbSymbolTableRecord
100
AcDbBlockTableRecord
  2
EX_NORM
  0
BLOCK_RECORD
  5
7C
330
1
100
AcDbSymbolTableRecord
100
AcDbBlockTableRecord
  2
EX_BNORM
  0
BLOCK_RECORD
  5
7F
330
1
100
AcDbSymbolTableRecord
100
AcDbBlockTableRecord
  2
EX_BCIR
  0
BLOCK_RECORD
  5
82
330
1
100
AcDbSymbolTableRecord
100
AcDbBlockTableRecord
  2
EX_RCIVIL
  0
BLOCK_RECORD
  5
85
330
1
100
AcDbSymbolTableRecord
100
AcDbBlockTableRecord
  2
EX_SLANT
  0
BLOCK_RECORD
  5
88
330
1
100
AcDbSymbolTableRecord
100
AcDbBlockTableRecord
  2
EX_NONE
  0
BLOCK_RECORD
  5
8B
330
1
100
AcDbSymbolTableRecord
100
AcDbBlockTableRecord
  2
EX_CIVIL
  0
BLOCK_RECORD
  5
8E
330
1
100
AcDbSymbolTableRecord
100
AcDbBlockTableRecord
  2
EX_WCIR
  0
BLOCK_RECORD
  5
91
330
1
100
AcDbSymbolTableRecord
100
AcDbBlockTableRecord
  2
EX_WCIR2
  0
BLOCK_RECORD
  5
94
330
1
100
AcDbSymbolTableRecord
100
AcDbBlockTableRecord
  2
EX_WNORM
  0
BLOCK_RECORD
  5
97
330
1
100
AcDbSymbolTableRecord
100
AcDbBlockTableRecord
  2
EX_NNORM
  0
BLOCK_RECORD
  5
9A
330
1
100
AcDbSymbolTableRecord
100
AcDbBlockTableRecord
  2
EX_BBOX
  0
BLOCK_RECORD
  5
9D
330
1
100
AcDbSymbolTableRecord
100
AcDbBlockTableRecord
  2
EX_WBOX
  0
BLOCK_RECORD
  5
A0
330
1
100
AcDbSymbolTableRecord
100
AcDbBlockTableRecord
  2
EX_INTEGRAL
  0
ENDTAB
  0
ENDSEC
  0
SECTION
  2
BLOCKS
  0
BLOCK
  5
20
330
1F
100
AcDbEntity
  8
0
100
AcDbBlockBegin
  2
*MODEL_SPACE
 70
     0
 10
0.0
 20
0.0
 30
0.0
  3
*MODEL_SPACE
  1

  0
ENDBLK
  5
21
330
1F
100
AcDbEntity
  8
0
100
AcDbBlockEnd
  0
BLOCK
  5
1C
330
1B
100
AcDbEntity
 67
     1
  8
0
100
AcDbBlockBegin
  2
*PAPER_SPACE
 70
     0
 10
0.0
 20
0.0
 30
0.0
  3
*PAPER_SPACE
  1

  0
ENDBLK
  5
1D
330
1B
100
AcDbEntity
 67
     1
  8
0
100
AcDbBlockEnd
  0
BLOCK
  5
7A
330
79
100
AcDbEntity
  8
0
100
AcDbBlockBegin
  2
EX_NORM
 70
     0
 10
0.0
 20
0.0
 30
0.0
  3
EX_NORM
  1
EX_NORM
  0
LINE
  5
A3
330
79
100
AcDbEntity
  8
0
  6
CONTINUOUS
 62
     0
100
AcDbLine
 10
0.0
 20
0.0
 30
0.0
 11
-1.0
 21
0.0
 31
0.0
  0
LINE
  5
A4
330
79
100
AcDbEntity
  8
0
  6
CONTINUOUS
 62
     0
100
AcDbLine
 10
0.0
 20
0.0
 30
0.0
 11
-1.0
 21
0.166666667
 31
0.0
  0
LINE
  5
A5
330
79
100
AcDbEntity
  8
0
  6
CONTINUOUS
 62
     0
100
AcDbLine
 10
0.0
 20
0.0
 30
0.0
 11
-1.0
 21
-0.166666667
 31
0.0
  0
ENDBLK
  5
7B
330
79
100
AcDbEntity
  8
0
100
AcDbBlockEnd
  0
BLOCK
  5
7D
330
7C
100
AcDbEntity
  8
0
100
AcDbBlockBegin
  2
EX_BNORM
 70
     0
 10
0.0
 20
0.0
 30
0.0
  3
EX_BNORM
  1
EX_BNORM
  0
LINE
  5
A6
330
7C
100
AcDbEntity
  8
0
  6
CONTINUOUS
 62
     0
100
AcDbLine
 10
0.0
 20
0.0
 30
0.0
 11
-1.0
 21
0.0
 31
0.0
  0
LINE
  5
A7
330
7C
100
AcDbEntity
  8
0
  6
CONTINUOUS
 62
     0
100
AcDbLine
 10
0.0
 20
0.0
 30
0.0
 11
-1.0
 21
0.166666667
 31
0.0
  0
LINE
  5
A8
330
7C
100
AcDbEntity
  8
0
  6
CONTINUOUS
 62
     0
100
AcDbLine
 10
0.0
 20
0.0
 30
0.0
 11
-1.0
 21
-0.166666667
 31
0.0
  0
LINE
  5
A9
330
7C
100
AcDbEntity
  8
0
  6
CONTINUOUS
 62
     0
100
AcDbLine
 10
0.0
 20
0.0
 30
0.0
 11
-1.0
 21
0.083333333
 31
0.0
  0
LINE
  5
AA
330
7C
100
AcDbEntity
  8
0
  6
CONTINUOUS
 62
     0
100
AcDbLine
 10
0.0
 20
0.0
 30
0.0
 11
-1.0
 21
-0.083333333
 31
0.0
  0
LINE
  5
AB
330
7C
100
AcDbEntity
  8
0
  6
CONTINUOUS
 62
     0
100
AcDbLine
 10
-1.0
 20
0.166666667
 30
0.0
 11
-1.0
 21
-0.166666667
 31
0.0
  0
ENDBLK
  5
7E
330
7C
100
AcDbEntity
  8
0
100
AcDbBlockEnd
  0
BLOCK
  5
80
330
7F
100
AcDbEntity
  8
0
100
AcDbBlockBegin
  2
EX_BCIR
 70
     0
 10
0.0
 20
0.0
 30
0.0
  3
EX_BCIR
  1
EX_BCIR
  0
LINE
  5
AC
330
7F
100
AcDbEntity
  8
0
  6
CONTINUOUS
 62
     0
100
AcDbLine
 10
0.0
 20
0.0
 30
0.0
 11
-1.0
 21
0.0
 31
0.0
  0
CIRCLE
  5
AD
330
7F
100
AcDbEntity
  8
0
  6
CONTINUOUS
 62
     0
100
AcDbCircle
 10
0.0
 20
0.0
 30
0.0
 40
0.5
  0
CIRCLE
  5
AE
330
7F
100
AcDbEntity
  8
0
  6
CONTINUOUS
 62
     0
100
AcDbCircle
 10
0.0
 20
0.0
 30
0.0
 40
0.25
  0
ENDBLK
  5
81
330
7F
100
AcDbEntity
  8
0
100
AcDbBlockEnd
  0
BLOCK
  5
83
330
82
100
AcDbEntity
  8
0
100
AcDbBlockBegin
  2
EX_RCIVIL
 70
     0
 10
0.0
 20
0.0
 30
0.0
  3
EX_RCIVIL
  1
EX_RCIVIL
  0
LINE
  5
AF
330
82
100
AcDbEntity
  8
0
  6
CONTINUOUS
 62
     0
100
AcDbLine
 10
0.0
 20
0.0
 30
0.0
 11
-1.0
 21
0.0
 31
0.0
  0
LINE
  5
B0
330
82
100
AcDbEntity
  8
0
  6
CONTINUOUS
 62
     0
100
AcDbLine
 10
-1.0
 20
-0.25
 30
0.0
 11
0.0
 21
-0.25
 31
0.0
  0
LINE
  5
B1
330
82
100
AcDbEntity
  8
0
  6
CONTINUOUS
 62
     0
100
AcDbLine
 10
-1.0
 20
-0.125
 30
0.0
 11
0.0
 21
-0.125
 31
0.0
  0
ENDBLK
  5
84
330
82
100
AcDbEntity
  8
0
100
AcDbBlockEnd
  0
BLOCK
  5
86
330
85
100
AcDbEntity
  8
0
100
AcDbBlockBegin
  2
EX_SLANT
 70
     0
 10
0.0
 20
0.0
 30
0.0
  3
EX_SLANT
  1
EX_SLANT
  0
LINE
  5
B2
330
85
100
AcDbEntity
  8
0
  6
CONTINUOUS
 62
     0
100
AcDbLine
 10
0.0
 20
0.0
 30
0.0
 11
-1.0
 21
0.0
 31
0.0
  0
LINE
  5
B3
330
85
100
AcDbEntity
  8
0
  6
CONTINUOUS
 62
     0
100
AcDbLine
 10
0.707106781
 20
0.707106781
 30
0.0
 11
-0.707106781
 21
-0.707106781
 31
0.0
  0
ENDBLK
  5
87
330
85
100
AcDbEntity
  8
0
100
AcDbBlockEnd
  0
BLOCK
  5
89
330
88
100
AcDbEntity
  8
0
100
AcDbBlockBegin
  2
EX_NONE
 70
     0
 10
0.0
 20
0.0
 30
0.0
  3
EX_NONE
  1
EX_NONE
  0
LINE
  5
B4
330
88
100
AcDbEntity
  8
0
  6
CONTINUOUS
 62
     0
100
AcDbLine
 10
0.0
 20
0.0
 30
0.0
 11
-1.0
 21
0.0
 31
0.0
  0
ENDBLK
  5
8A
330
88
100
AcDbEntity
  8
0
100
AcDbBlockEnd
  0
BLOCK
  5
8C
330
8B
100
AcDbEntity
  8
0
100
AcDbBlockBegin
  2
EX_CIVIL
 70
     0
 10
0.0
 20
0.0
 30
0.0
  3
EX_CIVIL
  1
EX_CIVIL
  0
LINE
  5
B5
330
8B
100
AcDbEntity
  8
0
  6
CONTINUOUS
 62
     0
100
AcDbLine
 10
0.0
 20
0.0
 30
0.0
 11
-1.0
 21
0.0
 31
0.0
  0
LINE
  5
B6
330
8B
100
AcDbEntity
  8
0
  6
CONTINUOUS
 62
     0
100
AcDbLine
 10
-1.0
 20
0.25
 30
0.0
 11
0.0
 21
0.25
 31
0.0
  0
LINE
  5
B7
330
8B
100
AcDbEntity
  8
0
  6
CONTINUOUS
 62
     0
100
AcDbLine
 10
-1.0
 20
0.125
 30
0.0
 11
0.0
 21
0.125
 31
0.0
  0
ENDBLK
  5
8D
330
8B
100
AcDbEntity
  8
0
100
AcDbBlockEnd
  0
BLOCK
  5
8F
330
8E
100
AcDbEntity
  8
0
100
AcDbBlockBegin
  2
EX_WCIR
 70
     0
 10
0.0
 20
0.0
 30
0.0
  3
EX_WCIR
  1
EX_WCIR
  0
LINE
  5
B8
330
8E
100
AcDbEntity
  8
0
  6
CONTINUOUS
 62
     0
100
AcDbLine
 10
0.0
 20
0.0
 30
0.0
 11
-1.0
 21
0.0
 31
0.0
  0
CIRCLE
  5
B9
330
8E
100
AcDbEntity
  8
0
  6
CONTINUOUS
 62
     0
100
AcDbCircle
 10
0.0
 20
0.0
 30
0.0
 40
0.5
  0
ENDBLK
  5
90
330
8E
100
AcDbEntity
  8
0
100
AcDbBlockEnd
  0
BLOCK
  5
92
330
91
100
AcDbEntity
  8
0
100
AcDbBlockBegin
  2
EX_WCIR2
 70
     0
 10
0.0
 20
0.0
 30
0.0
  3
EX_WCIR2
  1
EX_WCIR2
  0
LINE
  5
BA
330
91
100
AcDbEntity
  8
0
  6
CONTINUOUS
 62
     0
100
AcDbLine
 10
-0.5
 20
0.0
 30
0.0
 11
-1.0
 21
0.0
 31
0.0
  0
CIRCLE
  5
BB
330
91
100
AcDbEntity
  8
0
  6
CONTINUOUS
 62
     0
100
AcDbCircle
 10
0.0
 20
0.0
 30
0.0
 40
0.5
  0
ENDBLK
  5
93
330
91
100
AcDbEntity
  8
0
100
AcDbBlockEnd
  0
BLOCK
  5
95
330
94
100
AcDbEntity
  8
0
100
AcDbBlockBegin
  2
EX_WNORM
 70
     0
 10
0.0
 20
0.0
 30
0.0
  3
EX_WNORM
  1
EX_WNORM
  0
LINE
  5
BC
330
94
100
AcDbEntity
  8
0
  6
CONTINUOUS
 62
     0
100
AcDbLine
 10
-1.0
 20
0.0
 30
0.0
 11
-1.0
 21
0.0
 31
0.0
  0
LINE
  5
BD
330
94
100
AcDbEntity
  8
0
  6
CONTINUOUS
 62
     0
100
AcDbLine
 10
0.0
 20
0.0
 30
0.0
 11
-1.0
 21
0.166666667
 31
0.0
  0
LINE
  5
BE
330
94
100
AcDbEntity
  8
0
  6
CONTINUOUS
 62
     0
100
AcDbLine
 10
0.0
 20
0.0
 30
0.0
 11
-1.0
 21
-0.166666667
 31
0.0
  0
LINE
  5
BF
330
94
100
AcDbEntity
  8
0
  6
CONTINUOUS
 62
     0
100
AcDbLine
 10
-1.0
 20
0.166666667
 30
0.0
 11
-1.0
 21
-0.166666667
 31
0.0
  0
ENDBLK
  5
96
330
94
100
AcDbEntity
  8
0
100
AcDbBlockEnd
  0
BLOCK
  5
98
330
97
100
AcDbEntity
  8
0
100
AcDbBlockBegin
  2
EX_NNORM
 70
     0
 10
0.0
 20
0.0
 30
0.0
  3
EX_NNORM
  1
EX_NNORM
  0
LINE
  5
C0
330
97
100
AcDbEntity
  8
0
  6
CONTINUOUS
 62
     0
100
AcDbLine
 10
0.0
 20
0.0
 30
0.0
 11
-1.0
 21
0.0
 31
0.0
  0
LINE
  5
C1
330
97
100
AcDbEntity
  8
0
  6
CONTINUOUS
 62
     0
100
AcDbLine
 10
0.0
 20
0.0
 30
0.0
 11
-1.0
 21
0.166666667
 31
0.0
  0
LINE
  5
C2
330
97
100
AcDbEntity
  8
0
  6
CONTINUOUS
 62
     0
100
AcDbLine
 10
0.0
 20
0.0
 30
0.0
 11
-1.0
 21
-0.166666667
 31
0.0
  0
LINE
  5
C3
330
97
100
AcDbEntity
  8
0
  6
CONTINUOUS
 62
     0
100
AcDbLine
 10
-1.0
 20
0.166666667
 30
0.0
 11
-1.0
 21
-0.166666667
 31
0.0
  0
ENDBLK
  5
99
330
97
100
AcDbEntity
  8
0
100
AcDbBlockEnd
  0
BLOCK
  5
9B
330
9A
100
AcDbEntity
  8
0
100
AcDbBlockBegin
  2
EX_BBOX
 70
     0
 10
0.0
 20
0.0
 30
0.0
  3
EX_BBOX
  1
EX_BBOX
  0
LINE
  5
C4
330
9A
100
AcDbEntity
  8
0
  6
CONTINUOUS
 62
     0
100
AcDbLine
 10
0.0
 20
0.0
 30
0.0
 11
-1.0
 21
0.0
 31
0.0
  0
LINE
  5
C5
330
9A
100
AcDbEntity
  8
0
  6
CONTINUOUS
 62
     0
100
AcDbLine
 10
-0.5
 20
0.5
 30
0.0
 11
0.5
 21
0.5
 31
0.0
  0
LINE
  5
C6
330
9A
100
AcDbEntity
  8
0
  6
CONTINUOUS
 62
     0
100
AcDbLine
 10
0.5
 20
0.5
 30
0.0
 11
0.5
 21
-0.5
 31
0.0
  0
LINE
  5
C7
330
9A
100
AcDbEntity
  8
0
  6
CONTINUOUS
 62
     0
100
AcDbLine
 10
0.5
 20
-0.5
 30
0.0
 11
-0.5
 21
-0.5
 31
0.0
  0
LINE
  5
C8
330
9A
100
AcDbEntity
  8
0
  6
CONTINUOUS
 62
     0
100
AcDbLine
 10
-0.5
 20
-0.5
 30
0.0
 11
-0.5
 21
0.5
 31
0.0
  0
LINE
  5
C9
330
9A
100
AcDbEntity
  8
0
  6
CONTINUOUS
 62
     0
100
AcDbLine
 10
-0.25
 20
0.25
 30
0.0
 11
0.25
 21
0.25
 31
0.0
  0
LINE
  5
CA
330
9A
100
AcDbEntity
  8
0
  6
CONTINUOUS
 62
     0
100
AcDbLine
 10
0.25
 20
0.25
 30
0.0
 11
0.25
 21
-0.25
 31
0.0
  0
LINE
  5
CB
330
9A
100
AcDbEntity
  8
0
  6
CONTINUOUS
 62
     0
100
AcDbLine
 10
0.25
 20
-0.25
 30
0.0
 11
-0.25
 21
-0.25
 31
0.0
  0
LINE
  5
CC
330
9A
100
AcDbEntity
  8
0
  6
CONTINUOUS
 62
     0
100
AcDbLine
 10
-0.25
 20
-0.25
 30
0.0
 11
-0.25
 21
0.25
 31
0.0
  0
ENDBLK
  5
9C
330
9A
100
AcDbEntity
  8
0
100
AcDbBlockEnd
  0
BLOCK
  5
9E
330
9D
100
AcDbEntity
  8
0
100
AcDbBlockBegin
  2
EX_WBOX
 70
     0
 10
0.0
 20
0.0
 30
0.0
  3
EX_WBOX
  1
EX_WBOX
  0
LINE
  5
CD
330
9D
100
AcDbEntity
  8
0
  6
CONTINUOUS
 62
     0
100
AcDbLine
 10
-0.5
 20
0.0
 30
0.0
 11
-1.0
 21
0.0
 31
0.0
  0
LINE
  5
CE
330
9D
100
AcDbEntity
  8
0
  6
CONTINUOUS
 62
     0
100
AcDbLine
 10
-0.5
 20
0.5
 30
0.0
 11
0.5
 21
0.5
 31
0.0
  0
LINE
  5
CF
330
9D
100
AcDbEntity
  8
0
  6
CONTINUOUS
 62
     0
100
AcDbLine
 10
0.5
 20
0.5
 30
0.0
 11
0.5
 21
-0.5
 31
0.0
  0
LINE
  5
D0
330
9D
100
AcDbEntity
  8
0
  6
CONTINUOUS
 62
     0
100
AcDbLine
 10
0.5
 20
-0.5
 30
0.0
 11
-0.5
 21
-0.5
 31
0.0
  0
LINE
  5
D1
330
9D
100
AcDbEntity
  8
0
  6
CONTINUOUS
 62
     0
100
AcDbLine
 10
-0.5
 20
-0.5
 30
0.0
 11
-0.5
 21
0.5
 31
0.0
  0
ENDBLK
  5
9F
330
9D
100
AcDbEntity
  8
0
100
AcDbBlockEnd
  0
BLOCK
  5
A1
330
A0
100
AcDbEntity
  8
0
100
AcDbBlockBegin
  2
EX_INTEGRAL
 70
     0
 10
0.0
 20
0.0
 30
0.0
  3
EX_INTEGRAL
  1
EX_INTEGRAL
  0
LINE
  5
D2
330
A0
100
AcDbEntity
  8
0
  6
CONTINUOUS
 62
     0
100
AcDbLine
 10
0.0
 20
0.0
 30
0.0
 11
-1.0
 21
0.0
 31
0.0
  0
ARC
  5
D3
330
A0
100
AcDbEntity
  8
0
  6
CONTINUOUS
 62
     0
100
AcDbCircle
 10
0.542115
 20
0.164992
 30
0.0
 40
0.56667
100
AcDbArc
 50
73.07249033629006
 51
196.9275130221199
  0
ARC
  5
D4
330
A0
100
AcDbEntity
  8
0
  6
CONTINUOUS
 62
     0
100
AcDbCircle
 10
-0.542115
 20
-0.164992
 30
0.0
 40
0.56667
100
AcDbArc
 50
253.0724869220464
 51
16.9275130559125
  0
ENDBLK
  5
A2
330
A0
100
AcDbEntity
  8
0
100
AcDbBlockEnd
  0
ENDSEC
  0
SECTION
  2
ENTITIES
  0
LINE
  5
D5
330
1F
100
AcDbEntity
  8
LAY-1
  6
CONTINUOUS
 62
     3
100
AcDbLine
 10
116.42587366231
 20
67.249999999996
 30
0.0
 11
116.42587366231
 21
85.84999999999603
 31
0.0
  0
LINE
  5
D6
330
1F
100
AcDbEntity
  8
LAY-1
  6
CONTINUOUS
 62
     3
100
AcDbLine
 10
149.5741263376902
 20
67.24999999999606
 30
0.0
 11
149.5741263376901
 21
85.84999999999603
 31
0.0
  0
ARC
  5
D7
330
1F
100
AcDbEntity
  8
LAY-1
  6
CONTINUOUS
 62
     3
100
AcDbCircle
 10
187.0000000000001
 20
101.7699914303483
 30
0.0
 40
7.000000000000002
100
AcDbArc
 50
281.0035408517492
 51
0.0
  0
LINE
  5
D8
330
1F
100
AcDbEntity
  8
LAY-1
  6
CONTINUOUS
 62
     3
100
AcDbLine
 10
208.0
 20
76.99999999999874
 30
0.0
 11
208.0
 21
110.5000000000016
 31
0.0
  0
LINE
  5
D9
330
1F
100
AcDbEntity
  8
LAY-1
  6
CONTINUOUS
 62
     3
100
AcDbLine
 10
208.0
 20
110.4999999999988
 30
0.0
 11
206.9999999999999
 21
110.4999999999988
 31
0.0
  0
ARC
  5
DA
330
1F
100
AcDbEntity
  8
LAY-1
  6
CONTINUOUS
 62
     3
100
AcDbCircle
 10
187.0000000000001
 20
52.23000856964386
 30
0.0
 40
7.000000000000002
100
AcDbArc
 50
0.0
 51
78.9964591482508
  0
LINE
  5
DB
330
1F
100
AcDbEntity
  8
LAY-1
  6
CONTINUOUS
 62
     3
100
AcDbLine
 10
195.0000000000001
 20
139.4999999999988
 30
0.0
 11
206.9999999999999
 21
139.4999999999989
 31
0.0
  0
ARC
  5
DC
330
1F
100
AcDbEntity
  8
LAY-1
  6
CONTINUOUS
 62
     3
100
AcDbCircle
 10
195.0000000000001
 20
138.4999999999988
 30
0.0
 40
1.0
100
AcDbArc
 50
90.00000000000001
 51
180.0
  0
LINE
  5
DD
330
1F
100
AcDbEntity
  8
LAY-1
  6
EXLTYPE3
 62
     1
100
AcDbLine
 10
188.92965275251
 20
121.9999999999988
 30
0.0
 11
212.0
 21
121.9999999999989
 31
0.0
  0
LINE
  5
DE
330
1F
100
AcDbEntity
  8
LAY-1
  6
CONTINUOUS
 62
     3
100
AcDbLine
 10
206.9999999999999
 20
76.9999999999964
 30
0.0
 11
206.9999999999999
 21
139.499999999996
 31
0.0
  0
LINE
  5
DF
330
1F
100
AcDbEntity
  8
LAY-1
  6
CONTINUOUS
 62
     3
100
AcDbLine
 10
194.0
 20
76.99999999999635
 30
0.0
 11
194.0
 21
138.4999999999988
 31
0.0
  0
ARC
  5
E0
330
1F
100
AcDbEntity
  8
LAY-1
  6
CONTINUOUS
 62
     3
100
AcDbCircle
 10
78.99999999999977
 20
101.7699914303482
 30
0.0
 40
7.000000000000002
100
AcDbArc
 50
180.0000000000002
 51
258.996459148251
  0
LINE
  5
E1
330
1F
100
AcDbEntity
  8
LAY-1
  6
CONTINUOUS
 62
     3
100
AcDbLine
 10
57.99999999999994
 20
76.99999999999854
 30
0.0
 11
57.99999999999989
 21
110.5000000000014
 31
0.0
  0
LINE
  5
E2
330
1F
100
AcDbEntity
  8
LAY-1
  6
CONTINUOUS
 62
     3
100
AcDbLine
 10
57.99999999999989
 20
110.4999999999987
 30
0.0
 11
59.0
 21
110.4999999999987
 31
0.0
  0
ARC
  5
E3
330
1F
100
AcDbEntity
  8
LAY-1
  6
CONTINUOUS
 62
     3
100
AcDbCircle
 10
78.99999999999989
 20
52.23000856964372
 30
0.0
 40
7.000000000000002
100
AcDbArc
 50
101.0035408517493
 51
180.0000000000002
  0
LINE
  5
E4
330
1F
100
AcDbEntity
  8
LAY-1
  6
CONTINUOUS
 62
     3
100
AcDbLine
 10
70.99999999999972
 20
139.4999999999986
 30
0.0
 11
58.99999999999989
 21
139.4999999999987
 31
0.0
  0
ARC
  5
E5
330
1F
100
AcDbEntity
  8
LAY-1
  6
CONTINUOUS
 62
     3
100
AcDbCircle
 10
70.99999999999972
 20
138.4999999999986
 30
0.0
 40
1.0
100
AcDbArc
 50
0.0
 51
90.00000000000001
  0
LINE
  5
E6
330
1F
100
AcDbEntity
  8
LAY-1
  6
EXLTYPE3
 62
     1
100
AcDbLine
 10
77.07034724748985
 20
121.9999999999987
 30
0.0
 11
53.99999999999983
 21
121.9999999999986
 31
0.0
  0
LINE
  5
E7
330
1F
100
AcDbEntity
  8
LAY-1
  6
CONTINUOUS
 62
     3
100
AcDbLine
 10
59.00000000000006
 20
76.9999999999962
 30
0.0
 11
58.99999999999989
 21
139.4999999999958
 31
0.0
  0
LINE
  5
E8
330
1F
100
AcDbEntity
  8
LAY-1
  6
CONTINUOUS
 62
     3
100
AcDbLine
 10
72.0
 20
76.99999999999619
 30
0.0
 11
71.99999999999983
 21
138.4999999999986
 31
0.0
  0
LINE
  5
E9
330
1F
100
AcDbEntity
  8
LAY-1
  6
CONTINUOUS
 62
     3
100
AcDbLine
 10
208.0
 20
76.99999999999406
 30
0.0
 11
208.0000000000001
 21
43.49999999999122
 31
0.0
  0
LINE
  5
EA
330
1F
100
AcDbEntity
  8
LAY-1
  6
CONTINUOUS
 62
     3
100
AcDbLine
 10
208.0000000000001
 20
43.49999999999395
 30
0.0
 11
207.0
 21
43.49999999999394
 31
0.0
  0
LINE
  5
EB
330
1F
100
AcDbEntity
  8
LAY-1
  6
CONTINUOUS
 62
     3
100
AcDbLine
 10
195.0000000000003
 20
14.49999999999393
 30
0.0
 11
207.0000000000001
 21
14.49999999999392
 31
0.0
  0
ARC
  5
EC
330
1F
100
AcDbEntity
  8
LAY-1
  6
CONTINUOUS
 62
     3
100
AcDbCircle
 10
195.0000000000003
 20
15.49999999999393
 30
0.0
 40
1.0
100
AcDbArc
 50
180.0
 51
270.0
  0
LINE
  5
ED
330
1F
100
AcDbEntity
  8
LAY-1
  6
CONTINUOUS
 62
     3
100
AcDbLine
 10
206.9999999999999
 20
76.99999999999639
 30
0.0
 11
207.0000000000001
 21
14.49999999999676
 31
0.0
  0
LINE
  5
EE
330
1F
100
AcDbEntity
  8
LAY-1
  6
CONTINUOUS
 62
     3
100
AcDbLine
 10
194.0
 20
76.99999999999639
 30
0.0
 11
194.0000000000002
 21
15.49999999999393
 31
0.0
  0
LINE
  5
EF
330
1F
100
AcDbEntity
  8
LAY-1
  6
EXLTYPE3
 62
     1
100
AcDbLine
 10
188.9296527525102
 20
31.99999999999391
 30
0.0
 11
212.0000000000002
 21
31.99999999999395
 31
0.0
  0
LINE
  5
F0
330
1F
100
AcDbEntity
  8
LAY-1
  6
CONTINUOUS
 62
     3
100
AcDbLine
 10
57.99999999999994
 20
76.99999999999363
 30
0.0
 11
58.0
 21
43.49999999999078
 31
0.0
  0
LINE
  5
F1
330
1F
100
AcDbEntity
  8
LAY-1
  6
CONTINUOUS
 62
     3
100
AcDbLine
 10
58.0
 20
43.49999999999351
 30
0.0
 11
59.00000000000011
 21
43.49999999999351
 31
0.0
  0
LINE
  5
F2
330
1F
100
AcDbEntity
  8
LAY-1
  6
CONTINUOUS
 62
     3
100
AcDbLine
 10
70.99999999999994
 20
14.49999999999359
 30
0.0
 11
59.00000000000017
 21
14.49999999999352
 31
0.0
  0
ARC
  5
F3
330
1F
100
AcDbEntity
  8
LAY-1
  6
CONTINUOUS
 62
     3
100
AcDbCircle
 10
70.99999999999994
 20
15.49999999999359
 30
0.0
 40
1.0
100
AcDbArc
 50
270.0
 51
0.0000000000004011
  0
LINE
  5
F4
330
1F
100
AcDbEntity
  8
LAY-1
  6
CONTINUOUS
 62
     3
100
AcDbLine
 10
59.00000000000006
 20
76.99999999999598
 30
0.0
 11
59.00000000000017
 21
14.49999999999636
 31
0.0
  0
LINE
  5
F5
330
1F
100
AcDbEntity
  8
LAY-1
  6
CONTINUOUS
 62
     3
100
AcDbLine
 10
72.0
 20
76.99999999999605
 30
0.0
 11
72.00000000000006
 21
15.49999999999361
 31
0.0
  0
LINE
  5
F6
330
1F
100
AcDbEntity
  8
LAY-1
  6
EXLTYPE3
 62
     1
100
AcDbLine
 10
77.07034724749008
 20
31.99999999999359
 30
0.0
 11
54.0
 21
31.99999999999353
 31
0.0
  0
ARC
  5
F7
330
1F
100
AcDbEntity
  8
LAY-1
  6
CONTINUOUS
 62
     3
100
AcDbCircle
 10
133.0
 20
222.0
 30
0.0
 40
37.5
100
AcDbArc
 50
73.90998291717075
 51
90.00000000000001
  0
ARC
  5
F8
330
1F
100
AcDbEntity
  8
LAY-1
  6
CONTINUOUS
 62
     3
100
AcDbCircle
 10
146.7187887737978
 20
269.5609591427666
 30
0.0
 40
12.00000000000001
100
AcDbArc
 50
253.9099829171709
 51
310.6237791136201
  0
ARC
  5
F9
330
1F
100
AcDbEntity
  8
LAY-1
  6
CONTINUOUS
 62
     3
100
AcDbCircle
 10
162.34493141924
 20
251.34493141924
 30
0.0
 40
12.00000000000001
100
AcDbArc
 50
0.0
 51
132.7670453550352
  0
ARC
  5
FA
330
1F
100
AcDbEntity
  8
LAY-1
  6
CONTINUOUS
 62
     3
100
AcDbCircle
 10
133.0
 20
222.0
 30
0.0
 40
37.5
100
AcDbArc
 50
89.99999999999991
 51
106.0900170828292
  0
ARC
  5
FB
330
1F
100
AcDbEntity
  8
LAY-1
  6
CONTINUOUS
 62
     3
100
AcDbCircle
 10
133.0
 20
222.0000000000052
 30
0.0
 40
37.5
100
AcDbArc
 50
270.0000000000002
 51
286.0900170828295
  0
LINE
  5
FC
330
1F
100
AcDbEntity
  8
LAY-1
  6
CONTINUOUS
 62
     3
100
AcDbLine
 10
208.0
 20
188.5000000000027
 30
0.0
 11
206.9999999999999
 21
188.5000000000027
 31
0.0
  0
LINE
  5
FD
330
1F
100
AcDbEntity
  8
LAY-1
  6
CONTINUOUS
 62
     3
100
AcDbLine
 10
208.0
 20
222.0000000000027
 30
0.0
 11
208.0
 21
188.5
 31
0.0
  0
LINE
  5
FE
330
1F
100
AcDbEntity
  8
LAY-1
  6
CONTINUOUS
 62
     3
100
AcDbLine
 10
208.0
 20
222.0000000000027
 30
0.0
 11
208.0
 21
255.5000000000056
 31
0.0
  0
LINE
  5
FF
330
1F
100
AcDbEntity
  8
LAY-1
  6
CONTINUOUS
 62
     3
100
AcDbLine
 10
208.0
 20
255.5000000000028
 30
0.0
 11
206.9999999999999
 21
255.5000000000028
 31
0.0
  0
LINE
  5
100
330
1F
100
AcDbEntity
  8
LAY-1
  6
CONTINUOUS
 62
     3
100
AcDbLine
 10
195.0000000000001
 20
284.5000000000028
 30
0.0
 11
206.9999999999999
 21
284.5000000000028
 31
0.0
  0
ARC
  5
101
330
1F
100
AcDbEntity
  8
LAY-1
  6
CONTINUOUS
 62
     3
100
AcDbCircle
 10
195.0000000000001
 20
283.5000000000028
 30
0.0
 40
1.0
100
AcDbArc
 50
90.00000000000001
 51
180.0
  0
LINE
  5
102
330
1F
100
AcDbEntity
  8
LAY-1
  6
CONTINUOUS
 62
     3
100
AcDbLine
 10
195.0
 20
159.5000000000027
 30
0.0
 11
206.9999999999999
 21
159.5000000000027
 31
0.0
  0
ARC
  5
103
330
1F
100
AcDbEntity
  8
LAY-1
  6
CONTINUOUS
 62
     3
100
AcDbCircle
 10
195.0
 20
160.5000000000027
 30
0.0
 40
1.0
100
AcDbArc
 50
180.0
 51
270.0
  0
ARC
  5
104
330
1F
100
AcDbEntity
  8
LAY-1
  6
CONTINUOUS
 62
     3
100
AcDbCircle
 10
187.0
 20
246.7699914303524
 30
0.0
 40
7.000000000000002
100
AcDbArc
 50
281.0035408517492
 51
0.0
  0
ARC
  5
105
330
1F
100
AcDbEntity
  8
LAY-1
  6
CONTINUOUS
 62
     3
100
AcDbCircle
 10
187.0
 20
197.230008569653
 30
0.0
 40
7.000000000000002
100
AcDbArc
 50
0.0
 51
78.99645914825054
  0
LINE
  5
106
330
1F
100
AcDbEntity
  8
LAY-1
  6
CONTINUOUS
 62
     3
100
AcDbLine
 10
176.0
 20
237.5000000000056
 30
0.0
 11
188.3360876137156
 21
239.8986837026724
 31
0.0
  0
LINE
  5
107
330
1F
100
AcDbEntity
  8
LAY-1
  6
CONTINUOUS
 62
     3
100
AcDbLine
 10
176.0
 20
206.4999999999997
 30
0.0
 11
188.3360876137156
 21
204.1013162973329
 31
0.0
  0
LINE
  5
108
330
1F
100
AcDbEntity
  8
LAY-1
  6
CONTINUOUS
 62
     3
100
AcDbLine
 10
58.0
 20
188.5000000000027
 30
0.0
 11
59.00000000000011
 21
188.5000000000027
 31
0.0
  0
LINE
  5
109
330
1F
100
AcDbEntity
  8
LAY-1
  6
CONTINUOUS
 62
     3
100
AcDbLine
 10
58.0
 20
222.0000000000028
 30
0.0
 11
58.0
 21
188.5
 31
0.0
  0
LINE
  5
10A
330
1F
100
AcDbEntity
  8
LAY-1
  6
CONTINUOUS
 62
     3
100
AcDbLine
 10
58.0
 20
222.0000000000028
 30
0.0
 11
58.0
 21
255.5000000000056
 31
0.0
  0
LINE
  5
10B
330
1F
100
AcDbEntity
  8
LAY-1
  6
CONTINUOUS
 62
     3
100
AcDbLine
 10
58.0
 20
255.5000000000029
 30
0.0
 11
59.00000000000011
 21
255.5000000000029
 31
0.0
  0
LINE
  5
10C
330
1F
100
AcDbEntity
  8
LAY-1
  6
CONTINUOUS
 62
     3
100
AcDbLine
 10
70.99999999999989
 20
284.5000000000028
 30
0.0
 11
59.00000000000011
 21
284.5000000000028
 31
0.0
  0
ARC
  5
10D
330
1F
100
AcDbEntity
  8
LAY-1
  6
CONTINUOUS
 62
     3
100
AcDbCircle
 10
70.99999999999989
 20
283.5000000000028
 30
0.0
 40
1.0
100
AcDbArc
 50
0.0
 51
90.00000000000001
  0
LINE
  5
10E
330
1F
100
AcDbEntity
  8
LAY-1
  6
CONTINUOUS
 62
     3
100
AcDbLine
 10
70.99999999999989
 20
159.5000000000028
 30
0.0
 11
59.00000000000006
 21
159.5000000000028
 31
0.0
  0
ARC
  5
10F
330
1F
100
AcDbEntity
  8
LAY-1
  6
CONTINUOUS
 62
     3
100
AcDbCircle
 10
70.99999999999989
 20
160.5000000000028
 30
0.0
 40
1.0
100
AcDbArc
 50
270.0
 51
0.0
  0
ARC
  5
110
330
1F
100
AcDbEntity
  8
LAY-1
  6
CONTINUOUS
 62
     3
100
AcDbCircle
 10
78.99999999999989
 20
246.7699914303524
 30
0.0
 40
7.000000000000002
100
AcDbArc
 50
179.9999999999998
 51
258.9964591482509
  0
LINE
  5
111
330
1F
100
AcDbEntity
  8
LAY-1
  6
CONTINUOUS
 62
     3
100
AcDbLine
 10
89.99999999999989
 20
237.5000000000056
 30
0.0
 11
77.66391238628432
 21
239.8986837026724
 31
0.0
  0
ARC
  5
112
330
1F
100
AcDbEntity
  8
LAY-1
  6
CONTINUOUS
 62
     3
100
AcDbCircle
 10
78.99999999999989
 20
197.230008569653
 30
0.0
 40
7.000000000000002
100
AcDbArc
 50
101.0035408517495
 51
180.0
  0
LINE
  5
113
330
1F
100
AcDbEntity
  8
LAY-1
  6
CONTINUOUS
 62
     3
100
AcDbLine
 10
89.99999999999989
 20
206.4999999999997
 30
0.0
 11
77.66391238628432
 21
204.1013162973329
 31
0.0
  0
LINE
  5
114
330
1F
100
AcDbEntity
  8
LAY-1
  6
CONTINUOUS
 62
     3
100
AcDbLine
 10
59.00000000000011
 20
222.0000000000026
 30
0.0
 11
59.00000000000011
 21
284.5000000000028
 31
0.0
  0
LINE
  5
115
330
1F
100
AcDbEntity
  8
LAY-1
  6
CONTINUOUS
 62
     3
100
AcDbLine
 10
59.00000000000011
 20
222.0000000000026
 30
0.0
 11
59.00000000000006
 21
159.5000000000028
 31
0.0
  0
LINE
  5
116
330
1F
100
AcDbEntity
  8
LAY-1
  6
CONTINUOUS
 62
     3
100
AcDbLine
 10
71.99999999999989
 20
222.0000000000026
 30
0.0
 11
71.99999999999989
 21
283.5000000000028
 31
0.0
  0
LINE
  5
117
330
1F
100
AcDbEntity
  8
LAY-1
  6
CONTINUOUS
 62
     3
100
AcDbLine
 10
71.99999999999989
 20
222.0
 30
0.0
 11
71.99999999999989
 21
160.5000000000028
 31
0.0
  0
LINE
  5
118
330
1F
100
AcDbEntity
  8
LAY-1
  6
CONTINUOUS
 62
     3
100
AcDbLine
 10
91.65506858076003
 20
251.34493141924
 30
0.0
 11
91.65506858076003
 21
222.0000000000026
 31
0.0
  0
LINE
  5
119
330
1F
100
AcDbEntity
  8
LAY-1
  6
CONTINUOUS
 62
     3
100
AcDbLine
 10
91.65506858076009
 20
192.6550685807653
 30
0.0
 11
91.65506858076009
 21
222.0000000000026
 31
0.0
  0
LINE
  5
11A
330
1F
100
AcDbEntity
  8
LAY-1
  6
CONTINUOUS
 62
     3
100
AcDbLine
 10
206.9999999999999
 20
222.0000000000027
 30
0.0
 11
206.9999999999999
 21
284.5000000000028
 31
0.0
  0
LINE
  5
11B
330
1F
100
AcDbEntity
  8
LAY-1
  6
CONTINUOUS
 62
     3
100
AcDbLine
 10
206.9999999999999
 20
222.0
 30
0.0
 11
206.9999999999999
 21
159.5000000000027
 31
0.0
  0
LINE
  5
11C
330
1F
100
AcDbEntity
  8
LAY-1
  6
CONTINUOUS
 62
     3
100
AcDbLine
 10
194.0
 20
222.0000000000027
 30
0.0
 11
194.0
 21
160.5000000000027
 31
0.0
  0
LINE
  5
11D
330
1F
100
AcDbEntity
  8
LAY-1
  6
CONTINUOUS
 62
     3
100
AcDbLine
 10
194.0
 20
222.0000000000027
 30
0.0
 11
194.0000000000001
 21
283.5000000000028
 31
0.0
  0
LINE
  5
11E
330
1F
100
AcDbEntity
  8
LAY-1
  6
CONTINUOUS
 62
     3
100
AcDbLine
 10
174.34493141924
 20
192.6550685807653
 30
0.0
 11
174.34493141924
 21
222.0000000000027
 31
0.0
  0
LINE
  5
11F
330
1F
100
AcDbEntity
  8
LAY-1
  6
CONTINUOUS
 62
     3
100
AcDbLine
 10
91.65506858076003
 20
237.5000000000025
 30
0.0
 11
90.0
 21
237.5000000000025
 31
0.0
  0
LINE
  5
120
330
1F
100
AcDbEntity
  8
LAY-1
  6
CONTINUOUS
 62
     3
100
AcDbLine
 10
91.65506858076009
 20
206.5000000000027
 30
0.0
 11
90.0
 21
206.5000000000027
 31
0.0
  0
LINE
  5
121
330
1F
100
AcDbEntity
  8
LAY-1
  6
CONTINUOUS
 62
     3
100
AcDbLine
 10
174.34493141924
 20
237.5000000000025
 30
0.0
 11
176.0
 21
237.5000000000025
 31
0.0
  0
LINE
  5
122
330
1F
100
AcDbEntity
  8
LAY-1
  6
CONTINUOUS
 62
     3
100
AcDbLine
 10
174.34493141924
 20
206.5000000000028
 30
0.0
 11
176.0
 21
206.5000000000028
 31
0.0
  0
CIRCLE
  5
123
330
1F
100
AcDbEntity
  8
LAY-1
  6
CONTINUOUS
 62
     3
100
AcDbCircle
 10
133.0
 20
222.0
 30
0.0
 40
25.00000000000002
  0
ARC
  5
124
330
1F
100
AcDbEntity
  8
LAY-1
  6
CONTINUOUS
 62
     3
100
AcDbCircle
 10
133.0
 20
222.0000000000052
 30
0.0
 40
37.5
100
AcDbArc
 50
253.9099829171705
 51
269.9999999999999
  0
LINE
  5
125
330
1F
100
AcDbEntity
  8
LAY-1
  6
CONTINUOUS
 62
     3
100
AcDbLine
 10
165.0000000000002
 20
205.7499999999974
 30
0.0
 11
165.0000000000002
 21
210.7499999999971
 31
0.0
  0
LINE
  5
126
330
1F
100
AcDbEntity
  8
LAY-1
  6
CONTINUOUS
 62
     3
100
AcDbLine
 10
165.0000000000002
 20
210.7499999999971
 30
0.0
 11
171.0000000000001
 21
210.7499999999971
 31
0.0
  0
LINE
  5
127
330
1F
100
AcDbEntity
  8
LAY-1
  6
CONTINUOUS
 62
     3
100
AcDbLine
 10
171.0000000000001
 20
205.7499999999974
 30
0.0
 11
171.0000000000001
 21
210.7499999999971
 31
0.0
  0
LINE
  5
128
330
1F
100
AcDbEntity
  8
LAY-1
  6
CONTINUOUS
 62
     3
100
AcDbLine
 10
171.0000000000001
 20
205.7499999999974
 30
0.0
 11
165.0000000000002
 21
205.7499999999974
 31
0.0
  0
LINE
  5
129
330
1F
100
AcDbEntity
  8
LAY-1
  6
CONTINUOUS
 62
     3
100
AcDbLine
 10
165.0000000000002
 20
233.2499999999979
 30
0.0
 11
171.0000000000001
 21
233.2499999999979
 31
0.0
  0
LINE
  5
12A
330
1F
100
AcDbEntity
  8
LAY-1
  6
CONTINUOUS
 62
     3
100
AcDbLine
 10
171.0000000000001
 20
238.2499999999977
 30
0.0
 11
171.0000000000001
 21
233.2499999999979
 31
0.0
  0
LINE
  5
12B
330
1F
100
AcDbEntity
  8
LAY-1
  6
CONTINUOUS
 62
     3
100
AcDbLine
 10
165.0000000000002
 20
238.2499999999977
 30
0.0
 11
165.0000000000002
 21
233.2499999999979
 31
0.0
  0
LINE
  5
12C
330
1F
100
AcDbEntity
  8
LAY-1
  6
CONTINUOUS
 62
     3
100
AcDbLine
 10
171.0000000000001
 20
238.2499999999977
 30
0.0
 11
165.0000000000002
 21
238.2499999999977
 31
0.0
  0
CIRCLE
  5
12D
330
1F
100
AcDbEntity
  8
LAY-1
  6
CONTINUOUS
 62
     3
100
AcDbCircle
 10
133.0
 20
222.0
 30
0.0
 40
26.0
  0
LINE
  5
12E
330
1F
100
AcDbEntity
  8
LAY-1
  6
CONTINUOUS
 62
     3
100
AcDbLine
 10
91.65506858076014
 20
237.5000000000025
 30
0.0
 11
90.00000000000011
 21
237.5000000000025
 31
0.0
  0
LINE
  5
12F
330
1F
100
AcDbEntity
  8
LAY-1
  6
CONTINUOUS
 62
     3
100
AcDbLine
 10
100.9999999999999
 20
233.2499999999979
 30
0.0
 11
95.0
 21
233.2499999999979
 31
0.0
  0
LINE
  5
130
330
1F
100
AcDbEntity
  8
LAY-1
  6
CONTINUOUS
 62
     3
100
AcDbLine
 10
95.0
 20
238.2499999999977
 30
0.0
 11
95.0
 21
233.2499999999979
 31
0.0
  0
LINE
  5
131
330
1F
100
AcDbEntity
  8
LAY-1
  6
CONTINUOUS
 62
     3
100
AcDbLine
 10
100.9999999999999
 20
238.2499999999977
 30
0.0
 11
100.9999999999999
 21
233.2499999999979
 31
0.0
  0
LINE
  5
132
330
1F
100
AcDbEntity
  8
LAY-1
  6
CONTINUOUS
 62
     3
100
AcDbLine
 10
95.0
 20
238.2499999999977
 30
0.0
 11
100.9999999999999
 21
238.2499999999977
 31
0.0
  0
LINE
  5
133
330
1F
100
AcDbEntity
  8
LAY-1
  6
CONTINUOUS
 62
     3
100
AcDbLine
 10
100.9999999999999
 20
205.7499999999974
 30
0.0
 11
100.9999999999999
 21
210.7499999999971
 31
0.0
  0
LINE
  5
134
330
1F
100
AcDbEntity
  8
LAY-1
  6
CONTINUOUS
 62
     3
100
AcDbLine
 10
100.9999999999999
 20
210.7499999999971
 30
0.0
 11
95.0
 21
210.7499999999971
 31
0.0
  0
LINE
  5
135
330
1F
100
AcDbEntity
  8
LAY-1
  6
CONTINUOUS
 62
     3
100
AcDbLine
 10
95.0
 20
205.7499999999974
 30
0.0
 11
95.0
 21
210.7499999999971
 31
0.0
  0
LINE
  5
136
330
1F
100
AcDbEntity
  8
LAY-1
  6
CONTINUOUS
 62
     3
100
AcDbLine
 10
95.0
 20
205.7499999999974
 30
0.0
 11
100.9999999999999
 21
205.7499999999974
 31
0.0
  0
LINE
  5
137
330
1F
100
AcDbEntity
  8
LAY-1
  6
EXLTYPE3
 62
     1
100
AcDbLine
 10
133.0
 20
266.0
 30
0.0
 11
133.0
 21
178.0
 31
0.0
  0
LINE
  5
138
330
1F
100
AcDbEntity
  8
LAY-1
  6
EXLTYPE3
 62
     1
100
AcDbLine
 10
214.0
 20
222.0000000000001
 30
0.0
 11
52.0
 21
222.0000000000001
 31
0.0
  0
LINE
  5
139
330
1F
100
AcDbEntity
  8
LAY-1
  6
EXLTYPE3
 62
     1
100
AcDbLine
 10
188.92965275251
 20
267.0000000000028
 30
0.0
 11
212.0
 21
267.0000000000028
 31
0.0
  0
LINE
  5
13A
330
1F
100
AcDbEntity
  8
LAY-1
  6
EXLTYPE3
 62
     1
100
AcDbLine
 10
188.92965275251
 20
177.0000000000027
 30
0.0
 11
212.0
 21
177.0000000000027
 31
0.0
  0
LINE
  5
13B
330
1F
100
AcDbEntity
  8
LAY-1
  6
EXLTYPE3
 62
     1
100
AcDbLine
 10
77.0703472474901
 20
267.0000000000028
 30
0.0
 11
54.00000000000011
 21
267.0000000000028
 31
0.0
  0
LINE
  5
13C
330
1F
100
AcDbEntity
  8
LAY-1
  6
EXLTYPE3
 62
     1
100
AcDbLine
 10
77.07034724749008
 20
177.0000000000027
 30
0.0
 11
54.00000000000009
 21
177.0000000000027
 31
0.0
  0
LINE
  5
13D
330
1F
100
AcDbEntity
  8
LAY-1
  6
CONTINUOUS
 62
     3
100
AcDbLine
 10
157.43750641924
 20
242.84493141924
 30
0.0
 11
167.25244841924
 21
242.84493141924
 31
0.0
  0
LINE
  5
13E
330
1F
100
AcDbEntity
  8
LAY-1
  6
CONTINUOUS
 62
     3
100
AcDbLine
 10
167.25235641924
 20
259.84493141924
 30
0.0
 11
157.43750641924
 21
259.84493141924
 31
0.0
  0
LINE
  5
13F
330
1F
100
AcDbEntity
  8
LAY-1
  6
CONTINUOUS
 62
     3
100
AcDbLine
 10
152.52986841924
 20
251.34487041924
 30
0.0
 11
157.43750641924
 21
259.84493141924
 31
0.0
  0
LINE
  5
140
330
1F
100
AcDbEntity
  8
LAY-1
  6
CONTINUOUS
 62
     3
100
AcDbLine
 10
152.52986841924
 20
251.34487041924
 30
0.0
 11
157.43750641924
 21
242.84487041924
 31
0.0
  0
LINE
  5
141
330
1F
100
AcDbEntity
  8
LAY-1
  6
CONTINUOUS
 62
     3
100
AcDbLine
 10
167.25244841924
 20
242.84487041924
 30
0.0
 11
172.15997941924
 21
251.34493141924
 31
0.0
  0
LINE
  5
142
330
1F
100
AcDbEntity
  8
LAY-1
  6
CONTINUOUS
 62
     3
100
AcDbLine
 10
172.15987341924
 20
251.34493141924
 30
0.0
 11
167.25235641924
 21
259.84493141924
 31
0.0
  0
CIRCLE
  5
143
330
1F
100
AcDbEntity
  8
LAY-1
  6
CONTINUOUS
 62
     3
100
AcDbCircle
 10
162.34493141924
 20
251.34493141924
 30
0.0
 40
8.25
  0
ARC
  5
144
330
1F
100
AcDbEntity
  8
LAY-1
  6
CONTINUOUS
 62
     3
100
AcDbCircle
 10
162.34493141924
 20
251.34493141924
 30
0.0
 40
9.2
100
AcDbArc
 50
67.50501782887405
 51
112.494982171126
  0
ARC
  5
145
330
1F
100
AcDbEntity
  8
LAY-1
  6
CONTINUOUS
 62
     3
100
AcDbCircle
 10
162.34493141924
 20
251.34493141924
 30
0.0
 40
9.2
100
AcDbArc
 50
7.504761410094705
 51
52.4956401167853
  0
ARC
  5
146
330
1F
100
AcDbEntity
  8
LAY-1
  6
CONTINUOUS
 62
     3
100
AcDbCircle
 10
162.34493141924
 20
251.34493141924
 30
0.0
 40
9.2
100
AcDbArc
 50
307.5061109833118
 51
352.4937020298396
  0
ARC
  5
147
330
1F
100
AcDbEntity
  8
LAY-1
  6
CONTINUOUS
 62
     3
100
AcDbCircle
 10
162.34493141924
 20
251.34493141924
 30
0.0
 40
9.2
100
AcDbArc
 50
127.5045308209101
 51
232.4949025063364
  0
ARC
  5
148
330
1F
100
AcDbEntity
  8
LAY-1
  6
CONTINUOUS
 62
     3
100
AcDbCircle
 10
162.34493141924
 20
251.34493141924
 30
0.0
 40
9.2
100
AcDbArc
 50
247.5050178288747
 51
292.4949821711255
  0
ARC
  5
149
330
1F
100
AcDbEntity
  8
LAY-1
  6
EXLTYPE3
 62
     1
100
AcDbCircle
 10
133.0
 20
221.9999999999979
 30
0.0
 40
41.5
100
AcDbArc
 50
27.75854060106248
 51
62.5847220007215
  0
LINE
  5
14A
330
1F
100
AcDbEntity
  8
LAY-1
  6
EXLTYPE3
 62
     1
100
AcDbLine
 10
153.4999999999982
 20
242.5000000000018
 30
0.0
 11
170.8302127934768
 21
259.8302127934803
 31
0.0
  0
LINE
  5
14B
330
1F
100
AcDbEntity
  8
LAY-1
  6
CONTINUOUS
 62
     3
100
AcDbLine
 10
174.34493141924
 20
222.0000000000027
 30
0.0
 11
174.34493141924
 21
251.34493141924
 31
0.0
  0
ARC
  5
14C
330
1F
100
AcDbEntity
  8
LAY-1
  6
CONTINUOUS
 62
     3
100
AcDbCircle
 10
119.2812112262023
 20
269.5609591427666
 30
0.0
 40
12.00000000000001
100
AcDbArc
 50
229.3762208863799
 51
286.0900170828291
  0
ARC
  5
14D
330
1F
100
AcDbEntity
  8
LAY-1
  6
CONTINUOUS
 62
     3
100
AcDbCircle
 10
103.6550685807601
 20
251.34493141924
 30
0.0
 40
12.00000000000001
100
AcDbArc
 50
47.23295464496479
 51
180.0
  0
LINE
  5
14E
330
1F
100
AcDbEntity
  8
LAY-1
  6
CONTINUOUS
 62
     3
100
AcDbLine
 10
108.5624935807601
 20
242.84493141924
 30
0.0
 11
98.74755158076007
 21
242.84493141924
 31
0.0
  0
LINE
  5
14F
330
1F
100
AcDbEntity
  8
LAY-1
  6
CONTINUOUS
 62
     3
100
AcDbLine
 10
98.74764358076007
 20
259.84493141924
 30
0.0
 11
108.5624935807601
 21
259.84493141924
 31
0.0
  0
LINE
  5
150
330
1F
100
AcDbEntity
  8
LAY-1
  6
CONTINUOUS
 62
     3
100
AcDbLine
 10
113.4701315807601
 20
251.34487041924
 30
0.0
 11
108.5624935807601
 21
259.84493141924
 31
0.0
  0
LINE
  5
151
330
1F
100
AcDbEntity
  8
LAY-1
  6
CONTINUOUS
 62
     3
100
AcDbLine
 10
113.4701315807601
 20
251.34487041924
 30
0.0
 11
108.5624935807601
 21
242.84487041924
 31
0.0
  0
LINE
  5
152
330
1F
100
AcDbEntity
  8
LAY-1
  6
CONTINUOUS
 62
     3
100
AcDbLine
 10
98.74755158076007
 20
242.84487041924
 30
0.0
 11
93.84002058076007
 21
251.34493141924
 31
0.0
  0
LINE
  5
153
330
1F
100
AcDbEntity
  8
LAY-1
  6
CONTINUOUS
 62
     3
100
AcDbLine
 10
93.84012658076009
 20
251.34493141924
 30
0.0
 11
98.74764358076007
 21
259.84493141924
 31
0.0
  0
CIRCLE
  5
154
330
1F
100
AcDbEntity
  8
LAY-1
  6
CONTINUOUS
 62
     3
100
AcDbCircle
 10
103.6550685807601
 20
251.34493141924
 30
0.0
 40
8.25
  0
ARC
  5
155
330
1F
100
AcDbEntity
  8
LAY-1
  6
CONTINUOUS
 62
     3
100
AcDbCircle
 10
103.6550685807601
 20
251.34493141924
 30
0.0
 40
9.2
100
AcDbArc
 50
67.50501782887405
 51
112.494982171126
  0
ARC
  5
156
330
1F
100
AcDbEntity
  8
LAY-1
  6
CONTINUOUS
 62
     3
100
AcDbCircle
 10
103.6550685807601
 20
251.34493141924
 30
0.0
 40
9.2
100
AcDbArc
 50
127.5043598832148
 51
172.4952385899054
  0
ARC
  5
157
330
1F
100
AcDbEntity
  8
LAY-1
  6
CONTINUOUS
 62
     3
100
AcDbCircle
 10
103.6550685807601
 20
251.34493141924
 30
0.0
 40
9.2
100
AcDbArc
 50
187.5062979701604
 51
232.4938890166882
  0
ARC
  5
158
330
1F
100
AcDbEntity
  8
LAY-1
  6
CONTINUOUS
 62
     3
100
AcDbCircle
 10
103.6550685807601
 20
251.34493141924
 30
0.0
 40
9.2
100
AcDbArc
 50
307.5050974936637
 51
52.49546917908992
  0
ARC
  5
159
330
1F
100
AcDbEntity
  8
LAY-1
  6
CONTINUOUS
 62
     3
100
AcDbCircle
 10
103.6550685807601
 20
251.34493141924
 30
0.0
 40
9.2
100
AcDbArc
 50
247.5050178288747
 51
292.4949821711255
  0
ARC
  5
15A
330
1F
100
AcDbEntity
  8
LAY-1
  6
EXLTYPE3
 62
     1
100
AcDbCircle
 10
133.0000000000001
 20
221.9999999999979
 30
0.0
 40
41.5
100
AcDbArc
 50
117.4152779992786
 51
152.2414593989376
  0
LINE
  5
15B
330
1F
100
AcDbEntity
  8
LAY-1
  6
EXLTYPE3
 62
     1
100
AcDbLine
 10
112.5000000000019
 20
242.5000000000018
 30
0.0
 11
95.16978720652335
 21
259.8302127934803
 31
0.0
  0
ARC
  5
15C
330
1F
100
AcDbEntity
  8
LAY-1
  6
CONTINUOUS
 62
     3
100
AcDbCircle
 10
146.7187887737978
 20
174.4390408572336
 30
0.0
 40
12.00000000000001
100
AcDbArc
 50
49.37622088637995
 51
106.0900170828291
  0
ARC
  5
15D
330
1F
100
AcDbEntity
  8
LAY-1
  6
CONTINUOUS
 62
     3
100
AcDbCircle
 10
162.34493141924
 20
192.6550685807603
 30
0.0
 40
12.00000000000001
100
AcDbArc
 50
227.2329546449648
 51
0.0
  0
LINE
  5
15E
330
1F
100
AcDbEntity
  8
LAY-1
  6
CONTINUOUS
 62
     3
100
AcDbLine
 10
157.43750641924
 20
201.1550685807602
 30
0.0
 11
167.25244841924
 21
201.1550685807602
 31
0.0
  0
LINE
  5
15F
330
1F
100
AcDbEntity
  8
LAY-1
  6
CONTINUOUS
 62
     3
100
AcDbLine
 10
167.25235641924
 20
184.1550685807603
 30
0.0
 11
157.43750641924
 21
184.1550685807603
 31
0.0
  0
LINE
  5
160
330
1F
100
AcDbEntity
  8
LAY-1
  6
CONTINUOUS
 62
     3
100
AcDbLine
 10
152.52986841924
 20
192.6551295807602
 30
0.0
 11
157.43750641924
 21
184.1550685807603
 31
0.0
  0
LINE
  5
161
330
1F
100
AcDbEntity
  8
LAY-1
  6
CONTINUOUS
 62
     3
100
AcDbLine
 10
152.52986841924
 20
192.6551295807602
 30
0.0
 11
157.43750641924
 21
201.1551295807602
 31
0.0
  0
LINE
  5
162
330
1F
100
AcDbEntity
  8
LAY-1
  6
CONTINUOUS
 62
     3
100
AcDbLine
 10
167.25244841924
 20
201.1551295807602
 30
0.0
 11
172.15997941924
 21
192.6550685807602
 31
0.0
  0
LINE
  5
163
330
1F
100
AcDbEntity
  8
LAY-1
  6
CONTINUOUS
 62
     3
100
AcDbLine
 10
172.15987341924
 20
192.6550685807602
 30
0.0
 11
167.25235641924
 21
184.1550685807603
 31
0.0
  0
CIRCLE
  5
164
330
1F
100
AcDbEntity
  8
LAY-1
  6
CONTINUOUS
 62
     3
100
AcDbCircle
 10
162.34493141924
 20
192.6550685807602
 30
0.0
 40
8.25
  0
ARC
  5
165
330
1F
100
AcDbEntity
  8
LAY-1
  6
CONTINUOUS
 62
     3
100
AcDbCircle
 10
162.34493141924
 20
192.6550685807602
 30
0.0
 40
9.2
100
AcDbArc
 50
247.505017828874
 51
292.4949821711261
  0
ARC
  5
166
330
1F
100
AcDbEntity
  8
LAY-1
  6
CONTINUOUS
 62
     3
100
AcDbCircle
 10
162.34493141924
 20
192.6550685807602
 30
0.0
 40
9.2
100
AcDbArc
 50
307.5043598832147
 51
352.4952385899055
  0
ARC
  5
167
330
1F
100
AcDbEntity
  8
LAY-1
  6
CONTINUOUS
 62
     3
100
AcDbCircle
 10
162.34493141924
 20
192.6550685807602
 30
0.0
 40
9.2
100
AcDbArc
 50
7.506297970160454
 51
52.49388901668822
  0
ARC
  5
168
330
1F
100
AcDbEntity
  8
LAY-1
  6
CONTINUOUS
 62
     3
100
AcDbCircle
 10
162.34493141924
 20
192.6550685807602
 30
0.0
 40
9.2
100
AcDbArc
 50
127.5050974936636
 51
232.4954691790899
  0
ARC
  5
169
330
1F
100
AcDbEntity
  8
LAY-1
  6
CONTINUOUS
 62
     3
100
AcDbCircle
 10
162.34493141924
 20
192.6550685807602
 30
0.0
 40
9.2
100
AcDbArc
 50
67.50501782887461
 51
112.4949821711254
  0
ARC
  5
16A
330
1F
100
AcDbEntity
  8
LAY-1
  6
EXLTYPE3
 62
     1
100
AcDbCircle
 10
133.0
 20
222.0000000000023
 30
0.0
 40
41.5
100
AcDbArc
 50
297.4152779992785
 51
332.2414593989375
  0
LINE
  5
16B
330
1F
100
AcDbEntity
  8
LAY-1
  6
EXLTYPE3
 62
     1
100
AcDbLine
 10
153.4999999999982
 20
201.4999999999985
 30
0.0
 11
170.8302127934768
 21
184.1697872065199
 31
0.0
  0
ARC
  5
16C
330
1F
100
AcDbEntity
  8
LAY-1
  6
CONTINUOUS
 62
     3
100
AcDbCircle
 10
119.2812112262023
 20
174.4390408572336
 30
0.0
 40
12.00000000000001
100
AcDbArc
 50
73.90998291717081
 51
130.6237791136201
  0
ARC
  5
16D
330
1F
100
AcDbEntity
  8
LAY-1
  6
CONTINUOUS
 62
     3
100
AcDbCircle
 10
103.6550685807601
 20
192.6550685807603
 30
0.0
 40
12.00000000000001
100
AcDbArc
 50
180.0
 51
312.7670453550352
  0
LINE
  5
16E
330
1F
100
AcDbEntity
  8
LAY-1
  6
CONTINUOUS
 62
     3
100
AcDbLine
 10
108.5624935807601
 20
201.1550685807603
 30
0.0
 11
98.74755158076007
 21
201.1550685807603
 31
0.0
  0
LINE
  5
16F
330
1F
100
AcDbEntity
  8
LAY-1
  6
CONTINUOUS
 62
     3
100
AcDbLine
 10
98.74764358076007
 20
184.1550685807603
 30
0.0
 11
108.5624935807601
 21
184.1550685807603
 31
0.0
  0
LINE
  5
170
330
1F
100
AcDbEntity
  8
LAY-1
  6
CONTINUOUS
 62
     3
100
AcDbLine
 10
113.4701315807601
 20
192.6551295807602
 30
0.0
 11
108.5624935807601
 21
184.1550685807603
 31
0.0
  0
LINE
  5
171
330
1F
100
AcDbEntity
  8
LAY-1
  6
CONTINUOUS
 62
     3
100
AcDbLine
 10
113.4701315807601
 20
192.6551295807602
 30
0.0
 11
108.5624935807601
 21
201.1551295807603
 31
0.0
  0
LINE
  5
172
330
1F
100
AcDbEntity
  8
LAY-1
  6
CONTINUOUS
 62
     3
100
AcDbLine
 10
98.74755158076007
 20
201.1551295807603
 30
0.0
 11
93.84002058076007
 21
192.6550685807603
 31
0.0
  0
LINE
  5
173
330
1F
100
AcDbEntity
  8
LAY-1
  6
CONTINUOUS
 62
     3
100
AcDbLine
 10
93.84012658076009
 20
192.6550685807603
 30
0.0
 11
98.74764358076007
 21
184.1550685807603
 31
0.0
  0
CIRCLE
  5
174
330
1F
100
AcDbEntity
  8
LAY-1
  6
CONTINUOUS
 62
     3
100
AcDbCircle
 10
103.6550685807601
 20
192.6550685807603
 30
0.0
 40
8.25
  0
ARC
  5
175
330
1F
100
AcDbEntity
  8
LAY-1
  6
CONTINUOUS
 62
     3
100
AcDbCircle
 10
103.6550685807601
 20
192.6550685807603
 30
0.0
 40
9.2
100
AcDbArc
 50
247.5050178288741
 51
292.494982171126
  0
ARC
  5
176
330
1F
100
AcDbEntity
  8
LAY-1
  6
CONTINUOUS
 62
     3
100
AcDbCircle
 10
103.6550685807601
 20
192.6550685807603
 30
0.0
 40
9.2
100
AcDbArc
 50
187.5047614100947
 51
232.4956401167854
  0
ARC
  5
177
330
1F
100
AcDbEntity
  8
LAY-1
  6
CONTINUOUS
 62
     3
100
AcDbCircle
 10
103.6550685807601
 20
192.6550685807603
 30
0.0
 40
9.2
100
AcDbArc
 50
127.5061109833117
 51
172.4937020298396
  0
ARC
  5
178
330
1F
100
AcDbEntity
  8
LAY-1
  6
CONTINUOUS
 62
     3
100
AcDbCircle
 10
103.6550685807601
 20
192.6550685807603
 30
0.0
 40
9.2
100
AcDbArc
 50
307.5045308209099
 51
52.49490250633637
  0
ARC
  5
179
330
1F
100
AcDbEntity
  8
LAY-1
  6
CONTINUOUS
 62
     3
100
AcDbCircle
 10
103.6550685807601
 20
192.6550685807603
 30
0.0
 40
9.2
100
AcDbArc
 50
67.5050178288745
 51
112.4949821711254
  0
ARC
  5
17A
330
1F
100
AcDbEntity
  8
LAY-1
  6
EXLTYPE3
 62
     1
100
AcDbCircle
 10
133.0000000000001
 20
222.0000000000023
 30
0.0
 40
41.5
100
AcDbArc
 50
207.7585406010624
 51
242.5847220007214
  0
LINE
  5
17B
330
1F
100
AcDbEntity
  8
LAY-1
  6
EXLTYPE3
 62
     1
100
AcDbLine
 10
112.5000000000019
 20
201.4999999999985
 30
0.0
 11
95.16978720652335
 21
184.1697872065199
 31
0.0
  0
LINE
  5
17C
330
1F
100
AcDbEntity
  8
LAY-1
  6
CONTINUOUS
 62
     3
100
AcDbLine
 10
91.65506058073497
 20
102.000000250378
 30
0.0
 11
133.0
 21
101.999999999998
 31
0.0
  0
LINE
  5
17D
330
1F
100
AcDbEntity
  8
LAY-1
  6
CONTINUOUS
 62
     3
100
AcDbLine
 10
133.0
 20
112.0000009999976
 30
0.0
 11
91.65506058073497
 21
112.0000340759421
 31
0.0
  0
LINE
  5
17E
330
1F
100
AcDbEntity
  8
LAY-1
  6
CONTINUOUS
 62
     3
100
AcDbLine
 10
91.65506058073497
 20
102.000000250378
 30
0.0
 11
91.65506058073497
 21
112.0000340759421
 31
0.0
  0
LINE
  5
17F
330
1F
100
AcDbEntity
  8
LAY-1
  6
CONTINUOUS
 62
     3
100
AcDbLine
 10
91.65506858076006
 20
87.99999999999613
 30
0.0
 11
91.65506858076006
 21
98.9999999999959
 31
0.0
  0
LINE
  5
180
330
1F
100
AcDbEntity
  8
LAY-1
  6
CONTINUOUS
 62
     3
100
AcDbLine
 10
91.65506858076006
 20
65.99999999999602
 30
0.0
 11
91.65506858076006
 21
54.99999999999635
 31
0.0
  0
LINE
  5
181
330
1F
100
AcDbEntity
  8
LAY-1
  6
CONTINUOUS
 62
     3
100
AcDbLine
 10
174.34493941927
 20
102.000000250378
 30
0.0
 11
133.0
 21
101.999999999998
 31
0.0
  0
LINE
  5
182
330
1F
100
AcDbEntity
  8
LAY-1
  6
CONTINUOUS
 62
     3
100
AcDbLine
 10
133.0
 20
112.0000009999979
 30
0.0
 11
174.3449394192702
 21
112.0000340759419
 31
0.0
  0
LINE
  5
183
330
1F
100
AcDbEntity
  8
LAY-1
  6
EXLTYPE3
 62
     1
100
AcDbLine
 10
53.0
 20
76.99999999999608
 30
0.0
 11
213.07034724749
 21
76.9999999999964
 31
0.0
  0
LINE
  5
184
330
1F
100
AcDbEntity
  8
LAY-1
  6
CONTINUOUS
 62
     3
100
AcDbLine
 10
174.3449314192399
 20
98.99999999999612
 30
0.0
 11
91.65506858076006
 21
98.9999999999961
 31
0.0
  0
LINE
  5
185
330
1F
100
AcDbEntity
  8
LAY-1
  6
CONTINUOUS
 62
     3
100
AcDbLine
 10
174.3449314192399
 20
87.99999999999612
 30
0.0
 11
91.65506858076006
 21
87.9999999999961
 31
0.0
  0
LINE
  5
186
330
1F
100
AcDbEntity
  8
LAY-1
  6
CONTINUOUS
 62
     3
100
AcDbLine
 10
174.3449314192399
 20
54.99999999999612
 30
0.0
 11
91.65506858076006
 21
54.99999999999612
 31
0.0
  0
LINE
  5
187
330
1F
100
AcDbEntity
  8
LAY-1
  6
CONTINUOUS
 62
     3
100
AcDbLine
 10
174.3449314192399
 20
65.999999999996
 30
0.0
 11
91.65506858076006
 21
65.999999999996
 31
0.0
  0
ARC
  5
188
330
1F
100
AcDbEntity
  8
LAY-1
  6
CONTINUOUS
 62
     3
100
AcDbCircle
 10
89.6550685807599
 20
94.60452786717488
 30
0.0
 40
2.0
100
AcDbArc
 50
258.9964591482512
 51
0.0
  0
ARC
  5
189
330
1F
100
AcDbEntity
  8
LAY-1
  6
CONTINUOUS
 62
     3
100
AcDbCircle
 10
89.65506858075992
 20
59.39547213281756
 30
0.0
 40
2.0
100
AcDbArc
 50
0.0
 51
101.0035408517492
  0
LINE
  5
18A
330
1F
100
AcDbEntity
  8
LAY-1
  6
CONTINUOUS
 62
     3
100
AcDbLine
 10
176.7266707374402
 20
92.641297087837
 30
0.0
 11
188.3360876137157
 21
94.89868370266832
 31
0.0
  0
LINE
  5
18B
330
1F
100
AcDbEntity
  8
LAY-1
  6
CONTINUOUS
 62
     3
100
AcDbLine
 10
176.7266707374401
 20
61.35870291215545
 30
0.0
 11
188.3360876137157
 21
59.10131629732415
 31
0.0
  0
LINE
  5
18C
330
1F
100
AcDbEntity
  8
LAY-1
  6
CONTINUOUS
 62
     3
100
AcDbLine
 10
89.27332926255589
 20
61.35870291215456
 30
0.0
 11
77.66391238628432
 21
59.10131629732399
 31
0.0
  0
LINE
  5
18D
330
1F
100
AcDbEntity
  8
LAY-1
  6
CONTINUOUS
 62
     3
100
AcDbLine
 10
89.27332926255497
 20
92.64129708783781
 30
0.0
 11
77.66391238628421
 21
94.89868370266817
 31
0.0
  0
LINE
  5
18E
330
1F
100
AcDbEntity
  8
LAY-1
  6
EXLTYPE3
 62
     1
100
AcDbLine
 10
103.6550685807601
 20
124.0
 30
0.0
 11
103.6550685807601
 21
82.0
 31
0.0
  0
LINE
  5
18F
330
1F
100
AcDbEntity
  8
LAY-1
  6
CONTINUOUS
 62
     3
100
AcDbLine
 10
103.6550685807601
 20
114.5000244759386
 30
0.0
 11
94.45506858076301
 21
114.500031835937
 31
0.0
  0
LINE
  5
190
330
1F
100
AcDbEntity
  8
LAY-1
  6
CONTINUOUS
 62
     3
100
AcDbLine
 10
94.45506858076298
 20
114.50003183594
 30
0.0
 11
94.455068580763
 21
112.0000318359362
 31
0.0
  0
LINE
  5
191
330
1F
100
AcDbEntity
  8
LAY-1
  6
CONTINUOUS
 62
     3
100
AcDbLine
 10
103.6550685807601
 20
114.5000244759386
 30
0.0
 11
112.8550685807572
 21
114.500031835937
 31
0.0
  0
LINE
  5
192
330
1F
100
AcDbEntity
  8
LAY-1
  6
CONTINUOUS
 62
     3
100
AcDbLine
 10
112.8550685807572
 20
114.50003183594
 30
0.0
 11
112.8550685807572
 21
112.0000318359362
 31
0.0
  0
LINE
  5
193
330
1F
100
AcDbEntity
  8
LAY-1
  6
CONTINUOUS
 62
     3
100
AcDbLine
 10
103.15506258078
 20
114.50002487594
 30
0.0
 11
104.15506058078
 21
112.00002407594
 31
0.0
  0
LINE
  5
194
330
1F
100
AcDbEntity
  8
LAY-1
  6
CONTINUOUS
 62
     3
100
AcDbLine
 10
113.47007058076
 20
114.50002447594
 30
0.0
 11
93.84006658076001
 21
114.50002447594
 31
0.0
  0
LINE
  5
195
330
1F
100
AcDbEntity
  8
LAY-1
  6
CONTINUOUS
 62
     3
100
AcDbLine
 10
95.40500758076001
 20
121.50002447594
 30
0.0
 11
111.90500758076
 21
121.50002447594
 31
0.0
  0
LINE
  5
196
330
1F
100
AcDbEntity
  8
LAY-1
  6
CONTINUOUS
 62
     3
100
AcDbLine
 10
111.90500758076
 20
121.50002447594
 30
0.0
 11
113.47007058076
 21
120.59646047594
 31
0.0
  0
ARC
  5
197
330
1F
100
AcDbEntity
  8
LAY-1
  6
CONTINUOUS
 62
     3
100
AcDbCircle
 10
103.65541958076
 20
107.72170447594
 30
0.0
 40
13.778545
100
AcDbArc
 50
69.13644928750803
 51
110.8667416760509
  0
ARC
  5
198
330
1F
100
AcDbEntity
  8
LAY-1
  6
CONTINUOUS
 62
     3
100
AcDbCircle
 10
111.95032658076
 20
114.69283447594
 30
0.0
 40
6.807614
100
AcDbArc
 50
90.38143785206147
 51
119.8500896501275
  0
LINE
  5
199
330
1F
100
AcDbEntity
  8
LAY-1
  6
CONTINUOUS
 62
     3
100
AcDbLine
 10
95.40500758076001
 20
121.50002447594
 30
0.0
 11
93.83994358076
 21
120.59646047594
 31
0.0
  0
ARC
  5
19A
330
1F
100
AcDbEntity
  8
LAY-1
  6
CONTINUOUS
 62
     3
100
AcDbCircle
 10
95.35968858076001
 20
114.69283447594
 30
0.0
 40
6.807614
100
AcDbArc
 50
60.14991034987248
 51
89.61856214793853
  0
LINE
  5
19B
330
1F
100
AcDbEntity
  8
LAY-1
  6
CONTINUOUS
 62
     3
100
AcDbLine
 10
113.47007058076
 20
114.50002447594
 30
0.0
 11
113.47010158076
 21
120.59639947594
 31
0.0
  0
LINE
  5
19C
330
1F
100
AcDbEntity
  8
LAY-1
  6
CONTINUOUS
 62
     3
100
AcDbLine
 10
108.56241758076
 20
114.50008547594
 30
0.0
 11
108.56241758076
 21
120.59646047594
 31
0.0
  0
LINE
  5
19D
330
1F
100
AcDbEntity
  8
LAY-1
  6
CONTINUOUS
 62
     3
100
AcDbLine
 10
98.74758258076
 20
114.50008547594
 30
0.0
 11
98.74758258076
 21
120.59646047594
 31
0.0
  0
LINE
  5
19E
330
1F
100
AcDbEntity
  8
LAY-1
  6
CONTINUOUS
 62
     3
100
AcDbLine
 10
93.83994358076
 20
114.50002447594
 30
0.0
 11
93.83991358076
 21
120.59639947594
 31
0.0
  0
LINE
  5
19F
330
1F
100
AcDbEntity
  8
LAY-1
  6
CONTINUOUS
 62
     3
100
AcDbLine
 10
100.15497658076
 20
84.50002447593997
 30
0.0
 11
107.15503758076
 21
84.50002447593997
 31
0.0
  0
LINE
  5
1A0
330
1F
100
AcDbEntity
  8
LAY-1
  6
CONTINUOUS
 62
     3
100
AcDbLine
 10
108.65503758076
 20
86.00002447593997
 30
0.0
 11
107.15503758076
 21
84.50002447593997
 31
0.0
  0
LINE
  5
1A1
330
1F
100
AcDbEntity
  8
LAY-1
  6
CONTINUOUS
 62
     3
100
AcDbLine
 10
98.65497658076
 20
86.00005547594
 30
0.0
 11
108.65503758076
 21
86.00002447593997
 31
0.0
  0
LINE
  5
1A2
330
1F
100
AcDbEntity
  8
LAY-1
  6
CONTINUOUS
 62
     3
100
AcDbLine
 10
98.65497658076
 20
86.00002447593997
 30
0.0
 11
100.15497658076
 21
84.50002447593997
 31
0.0
  0
LINE
  5
1A3
330
1F
100
AcDbEntity
  8
LAY-1
  6
CONTINUOUS
 62
     3
100
AcDbLine
 10
98.65506858076012
 20
86.000055476036
 30
0.0
 11
98.65506858076012
 21
87.99999999999613
 31
0.0
  0
LINE
  5
1A4
330
1F
100
AcDbEntity
  8
LAY-1
  6
CONTINUOUS
 62
     3
100
AcDbLine
 10
98.65506858075996
 20
98.99999999999613
 30
0.0
 11
98.65506858075996
 21
102.0000002079868
 31
0.0
  0
LINE
  5
1A5
330
1F
100
AcDbEntity
  8
LAY-1
  6
CONTINUOUS
 62
     3
100
AcDbLine
 10
108.65503758076
 20
86.00002447594
 30
0.0
 11
108.65503758076
 21
87.99999999999613
 31
0.0
  0
LINE
  5
1A6
330
1F
100
AcDbEntity
  8
LAY-1
  6
CONTINUOUS
 62
     3
100
AcDbLine
 10
108.65503758076
 20
98.99999999999613
 30
0.0
 11
108.65503758076
 21
102.0000001474282
 31
0.0
  0
LINE
  5
1A7
330
1F
100
AcDbEntity
  8
LAY-1
  6
CONTINUOUS
 62
     1
100
AcDbLine
 10
99.46698858076002
 20
102.000000250378
 30
0.0
 11
99.46698858076002
 21
98.99999999999612
 31
0.0
  0
LINE
  5
1A8
330
1F
100
AcDbEntity
  8
LAY-1
  6
CONTINUOUS
 62
     1
100
AcDbLine
 10
99.46698858076002
 20
87.99999999999612
 30
0.0
 11
99.46698858076002
 21
85.18798247594
 31
0.0
  0
LINE
  5
1A9
330
1F
100
AcDbEntity
  8
LAY-1
  6
CONTINUOUS
 62
     1
100
AcDbLine
 10
107.84302658076
 20
102.000000250378
 30
0.0
 11
107.84302658076
 21
98.99999999999612
 31
0.0
  0
LINE
  5
1AA
330
1F
100
AcDbEntity
  8
LAY-1
  6
CONTINUOUS
 62
     1
100
AcDbLine
 10
107.84302658076
 20
87.99999999999612
 30
0.0
 11
107.84302658076
 21
85.18798247594
 31
0.0
  0
LINE
  5
1AB
330
1F
100
AcDbEntity
  8
LAY-1
  6
CONTINUOUS
 62
     3
100
AcDbLine
 10
103.6550685807602
 20
39.49997552405379
 30
0.0
 11
94.45506858076317
 21
39.4999681640553
 31
0.0
  0
LINE
  5
1AC
330
1F
100
AcDbEntity
  8
LAY-1
  6
CONTINUOUS
 62
     3
100
AcDbLine
 10
94.45506858076314
 20
39.49996816405232
 30
0.0
 11
94.45506858076314
 21
41.99996816405611
 31
0.0
  0
LINE
  5
1AD
330
1F
100
AcDbEntity
  8
LAY-1
  6
CONTINUOUS
 62
     3
100
AcDbLine
 10
103.6550685807603
 20
39.49997552405379
 30
0.0
 11
112.8550685807574
 21
39.49996816405537
 31
0.0
  0
LINE
  5
1AE
330
1F
100
AcDbEntity
  8
LAY-1
  6
CONTINUOUS
 62
     3
100
AcDbLine
 10
112.8550685807574
 20
39.49996816405238
 30
0.0
 11
112.8550685807574
 21
41.99996816405618
 31
0.0
  0
LINE
  5
1AF
330
1F
100
AcDbEntity
  8
LAY-1
  6
CONTINUOUS
 62
     3
100
AcDbLine
 10
113.4700705807602
 20
39.49997552405241
 30
0.0
 11
93.84006658076017
 21
39.49997552405233
 31
0.0
  0
LINE
  5
1B0
330
1F
100
AcDbEntity
  8
LAY-1
  6
CONTINUOUS
 62
     3
100
AcDbLine
 10
95.4050075807602
 20
32.49997552405234
 30
0.0
 11
111.9050075807602
 21
32.4999755240524
 31
0.0
  0
LINE
  5
1B1
330
1F
100
AcDbEntity
  8
LAY-1
  6
CONTINUOUS
 62
     3
100
AcDbLine
 10
111.9050075807602
 20
32.4999755240524
 30
0.0
 11
113.4700705807602
 21
33.40353952405243
 31
0.0
  0
ARC
  5
1B2
330
1F
100
AcDbEntity
  8
LAY-1
  6
CONTINUOUS
 62
     3
100
AcDbCircle
 10
103.6554195807601
 20
46.27829552405238
 30
0.0
 40
13.778545
100
AcDbArc
 50
249.1332583239493
 51
290.8635507124922
  0
ARC
  5
1B3
330
1F
100
AcDbEntity
  8
LAY-1
  6
CONTINUOUS
 62
     3
100
AcDbCircle
 10
111.9503265807601
 20
39.30716552405239
 30
0.0
 40
6.807614
100
AcDbArc
 50
240.1499103498726
 51
269.6185621479387
  0
LINE
  5
1B4
330
1F
100
AcDbEntity
  8
LAY-1
  6
CONTINUOUS
 62
     3
100
AcDbLine
 10
95.4050075807602
 20
32.49997552405234
 30
0.0
 11
93.83994358076018
 21
33.40353952405235
 31
0.0
  0
ARC
  5
1B5
330
1F
100
AcDbEntity
  8
LAY-1
  6
CONTINUOUS
 62
     3
100
AcDbCircle
 10
95.35968858076016
 20
39.30716552405233
 30
0.0
 40
6.807614
100
AcDbArc
 50
270.3814378520618
 51
299.8500896501276
  0
LINE
  5
1B6
330
1F
100
AcDbEntity
  8
LAY-1
  6
CONTINUOUS
 62
     3
100
AcDbLine
 10
113.4700705807602
 20
39.49997552405241
 30
0.0
 11
113.4701015807602
 21
33.40360052405241
 31
0.0
  0
LINE
  5
1B7
330
1F
100
AcDbEntity
  8
LAY-1
  6
CONTINUOUS
 62
     3
100
AcDbLine
 10
108.5624175807602
 20
39.4999145240524
 30
0.0
 11
108.5624175807602
 21
33.40353952405241
 31
0.0
  0
LINE
  5
1B8
330
1F
100
AcDbEntity
  8
LAY-1
  6
CONTINUOUS
 62
     3
100
AcDbLine
 10
98.74758258076015
 20
39.49991452405236
 30
0.0
 11
98.74758258076017
 21
33.40353952405237
 31
0.0
  0
LINE
  5
1B9
330
1F
100
AcDbEntity
  8
LAY-1
  6
CONTINUOUS
 62
     3
100
AcDbLine
 10
93.83994358076016
 20
39.49997552405233
 30
0.0
 11
93.83991358076017
 21
33.40360052405234
 31
0.0
  0
LINE
  5
1BA
330
1F
100
AcDbEntity
  8
LAY-1
  6
CONTINUOUS
 62
     3
100
AcDbLine
 10
98.65506858076006
 20
54.99999999999621
 30
0.0
 11
98.65506858076006
 21
51.99999979200557
 31
0.0
  0
LINE
  5
1BB
330
1F
100
AcDbEntity
  8
LAY-1
  6
CONTINUOUS
 62
     3
100
AcDbLine
 10
108.6550375807601
 20
54.99999999999625
 30
0.0
 11
108.6550375807601
 21
51.99999985256423
 31
0.0
  0
LINE
  5
1BC
330
1F
100
AcDbEntity
  8
LAY-1
  6
CONTINUOUS
 62
     1
100
AcDbLine
 10
99.46698858076012
 20
51.99999974961437
 30
0.0
 11
99.4669885807601
 21
54.99999999999623
 31
0.0
  0
LINE
  5
1BD
330
1F
100
AcDbEntity
  8
LAY-1
  6
CONTINUOUS
 62
     1
100
AcDbLine
 10
107.8430265807601
 20
51.9999997496144
 30
0.0
 11
107.8430265807601
 21
54.99999999999626
 31
0.0
  0
LINE
  5
1BE
330
1F
100
AcDbEntity
  8
LAY-1
  6
CONTINUOUS
 62
     3
100
AcDbLine
 10
100.15497658076
 20
69.49997552405239
 30
0.0
 11
107.1550375807601
 21
69.49997552405242
 31
0.0
  0
LINE
  5
1BF
330
1F
100
AcDbEntity
  8
LAY-1
  6
CONTINUOUS
 62
     3
100
AcDbLine
 10
108.6550375807601
 20
67.99997552405242
 30
0.0
 11
107.1550375807601
 21
69.49997552405242
 31
0.0
  0
LINE
  5
1C0
330
1F
100
AcDbEntity
  8
LAY-1
  6
CONTINUOUS
 62
     3
100
AcDbLine
 10
98.65497658076004
 20
67.99994452405234
 30
0.0
 11
108.6550375807601
 21
67.99997552405242
 31
0.0
  0
LINE
  5
1C1
330
1F
100
AcDbEntity
  8
LAY-1
  6
CONTINUOUS
 62
     3
100
AcDbLine
 10
98.65497658076004
 20
67.99997552405237
 30
0.0
 11
100.15497658076
 21
69.49997552405239
 31
0.0
  0
LINE
  5
1C2
330
1F
100
AcDbEntity
  8
LAY-1
  6
CONTINUOUS
 62
     3
100
AcDbLine
 10
98.65506858076014
 20
67.99994452395634
 30
0.0
 11
98.65506858076016
 21
65.9999999999962
 31
0.0
  0
LINE
  5
1C3
330
1F
100
AcDbEntity
  8
LAY-1
  6
CONTINUOUS
 62
     3
100
AcDbLine
 10
108.65503758076
 20
67.99997552405239
 30
0.0
 11
108.65503758076
 21
65.99999999999625
 31
0.0
  0
LINE
  5
1C4
330
1F
100
AcDbEntity
  8
LAY-1
  6
CONTINUOUS
 62
     1
100
AcDbLine
 10
99.46698858076006
 20
65.99999999999622
 30
0.0
 11
99.46698858076005
 21
68.81201752405235
 31
0.0
  0
LINE
  5
1C5
330
1F
100
AcDbEntity
  8
LAY-1
  6
CONTINUOUS
 62
     1
100
AcDbLine
 10
107.84302658076
 20
65.99999999999626
 30
0.0
 11
107.84302658076
 21
68.81201752405238
 31
0.0
  0
LINE
  5
1C6
330
1F
100
AcDbEntity
  8
LAY-1
  6
EXLTYPE3
 62
     1
100
AcDbLine
 10
103.6550685807603
 20
29.99999999999236
 30
0.0
 11
103.6550685807601
 21
71.99999999999237
 31
0.0
  0
LINE
  5
1C7
330
1F
100
AcDbEntity
  8
LAY-1
  6
CONTINUOUS
 62
     3
100
AcDbLine
 10
133.0000000000001
 20
41.99999899999484
 30
0.0
 11
91.65506058073511
 21
41.99996592405019
 31
0.0
  0
LINE
  5
1C8
330
1F
100
AcDbEntity
  8
LAY-1
  6
CONTINUOUS
 62
     3
100
AcDbLine
 10
91.65506058073507
 20
51.99999974961433
 30
0.0
 11
91.65506058073511
 21
41.99996592405019
 31
0.0
  0
LINE
  5
1C9
330
1F
100
AcDbEntity
  8
LAY-1
  6
CONTINUOUS
 62
     3
100
AcDbLine
 10
91.65506058073507
 20
51.99999974961433
 30
0.0
 11
133.0000000000001
 21
51.9999999999945
 31
0.0
  0
LINE
  5
1CA
330
1F
100
AcDbEntity
  8
LAY-1
  6
CONTINUOUS
 62
     3
100
AcDbLine
 10
174.3449394192701
 20
51.99999974961467
 30
0.0
 11
133.0000000000001
 21
51.9999999999945
 31
0.0
  0
LINE
  5
1CB
330
1F
100
AcDbEntity
  8
LAY-1
  6
CONTINUOUS
 62
     3
100
AcDbLine
 10
133.0000000000001
 20
41.99999899999462
 30
0.0
 11
174.3449394192703
 21
41.99996592405073
 31
0.0
  0
LINE
  5
1CC
330
1F
100
AcDbEntity
  8
LAY-1
  6
CONTINUOUS
 62
     3
100
AcDbLine
 10
174.3449394192648
 20
102.0000002503781
 30
0.0
 11
174.3449394192648
 21
112.0000340759422
 31
0.0
  0
LINE
  5
1CD
330
1F
100
AcDbEntity
  8
LAY-1
  6
CONTINUOUS
 62
     3
100
AcDbLine
 10
174.3449314192398
 20
87.99999999999625
 30
0.0
 11
174.3449314192398
 21
98.999999999996
 31
0.0
  0
ARC
  5
1CE
330
1F
100
AcDbEntity
  8
LAY-1
  6
CONTINUOUS
 62
     3
100
AcDbCircle
 10
176.3449314192399
 20
94.604527867175
 30
0.0
 40
2.0
100
AcDbArc
 50
180.0
 51
281.0035408517492
  0
LINE
  5
1CF
330
1F
100
AcDbEntity
  8
LAY-1
  6
EXLTYPE3
 62
     1
100
AcDbLine
 10
162.3449314192397
 20
124.0000000000001
 30
0.0
 11
162.3449314192398
 21
82.00000000000009
 31
0.0
  0
LINE
  5
1D0
330
1F
100
AcDbEntity
  8
LAY-1
  6
CONTINUOUS
 62
     3
100
AcDbLine
 10
162.3449314192397
 20
114.5000244759387
 30
0.0
 11
171.5449314192368
 21
114.5000318359371
 31
0.0
  0
LINE
  5
1D1
330
1F
100
AcDbEntity
  8
LAY-1
  6
CONTINUOUS
 62
     3
100
AcDbLine
 10
171.5449314192368
 20
114.5000318359401
 30
0.0
 11
171.5449314192368
 21
112.0000318359363
 31
0.0
  0
LINE
  5
1D2
330
1F
100
AcDbEntity
  8
LAY-1
  6
CONTINUOUS
 62
     3
100
AcDbLine
 10
162.3449314192397
 20
114.5000244759387
 30
0.0
 11
153.1449314192426
 21
114.5000318359371
 31
0.0
  0
LINE
  5
1D3
330
1F
100
AcDbEntity
  8
LAY-1
  6
CONTINUOUS
 62
     3
100
AcDbLine
 10
153.1449314192426
 20
114.5000318359401
 30
0.0
 11
153.1449314192426
 21
112.0000318359363
 31
0.0
  0
LINE
  5
1D4
330
1F
100
AcDbEntity
  8
LAY-1
  6
CONTINUOUS
 62
     3
100
AcDbLine
 10
152.5299294192398
 20
114.5000244759401
 30
0.0
 11
172.1599334192398
 21
114.5000244759401
 31
0.0
  0
LINE
  5
1D5
330
1F
100
AcDbEntity
  8
LAY-1
  6
CONTINUOUS
 62
     3
100
AcDbLine
 10
170.5949924192398
 20
121.5000244759401
 30
0.0
 11
154.0949924192398
 21
121.5000244759401
 31
0.0
  0
LINE
  5
1D6
330
1F
100
AcDbEntity
  8
LAY-1
  6
CONTINUOUS
 62
     3
100
AcDbLine
 10
154.0949924192398
 20
121.5000244759401
 30
0.0
 11
152.5299294192398
 21
120.59646047594
 31
0.0
  0
ARC
  5
1D7
330
1F
100
AcDbEntity
  8
LAY-1
  6
CONTINUOUS
 62
     3
100
AcDbCircle
 10
162.3445804192398
 20
107.7217044759401
 30
0.0
 40
13.778545
100
AcDbArc
 50
69.1332583239493
 51
110.8635507124921
  0
ARC
  5
1D8
330
1F
100
AcDbEntity
  8
LAY-1
  6
CONTINUOUS
 62
     3
100
AcDbCircle
 10
154.0496734192398
 20
114.6928344759401
 30
0.0
 40
6.807614
100
AcDbArc
 50
60.14991034987271
 51
89.61856214793866
  0
LINE
  5
1D9
330
1F
100
AcDbEntity
  8
LAY-1
  6
CONTINUOUS
 62
     3
100
AcDbLine
 10
170.5949924192398
 20
121.5000244759401
 30
0.0
 11
172.1600564192398
 21
120.5964604759401
 31
0.0
  0
ARC
  5
1DA
330
1F
100
AcDbEntity
  8
LAY-1
  6
CONTINUOUS
 62
     3
100
AcDbCircle
 10
170.6403114192398
 20
114.6928344759401
 30
0.0
 40
6.807614
100
AcDbArc
 50
90.38143785206162
 51
119.8500896501277
  0
LINE
  5
1DB
330
1F
100
AcDbEntity
  8
LAY-1
  6
CONTINUOUS
 62
     3
100
AcDbLine
 10
152.5299294192398
 20
114.5000244759401
 30
0.0
 11
152.5298984192397
 21
120.59639947594
 31
0.0
  0
LINE
  5
1DC
330
1F
100
AcDbEntity
  8
LAY-1
  6
CONTINUOUS
 62
     3
100
AcDbLine
 10
157.4375824192398
 20
114.50008547594
 30
0.0
 11
157.4375824192398
 21
120.59646047594
 31
0.0
  0
LINE
  5
1DD
330
1F
100
AcDbEntity
  8
LAY-1
  6
CONTINUOUS
 62
     3
100
AcDbLine
 10
167.2524174192398
 20
114.5000854759401
 30
0.0
 11
167.2524174192398
 21
120.5964604759401
 31
0.0
  0
LINE
  5
1DE
330
1F
100
AcDbEntity
  8
LAY-1
  6
CONTINUOUS
 62
     3
100
AcDbLine
 10
172.1600564192398
 20
114.5000244759401
 30
0.0
 11
172.1600864192398
 21
120.5963994759401
 31
0.0
  0
LINE
  5
1DF
330
1F
100
AcDbEntity
  8
LAY-1
  6
CONTINUOUS
 62
     3
100
AcDbLine
 10
165.8450234192399
 20
84.50002447594005
 30
0.0
 11
158.8449624192398
 21
84.50002447594004
 31
0.0
  0
LINE
  5
1E0
330
1F
100
AcDbEntity
  8
LAY-1
  6
CONTINUOUS
 62
     3
100
AcDbLine
 10
157.3449624192398
 20
86.00002447594002
 30
0.0
 11
158.8449624192398
 21
84.50002447594004
 31
0.0
  0
LINE
  5
1E1
330
1F
100
AcDbEntity
  8
LAY-1
  6
CONTINUOUS
 62
     3
100
AcDbLine
 10
167.3450234192399
 20
86.00005547594009
 30
0.0
 11
157.3449624192398
 21
86.00002447594002
 31
0.0
  0
LINE
  5
1E2
330
1F
100
AcDbEntity
  8
LAY-1
  6
CONTINUOUS
 62
     3
100
AcDbLine
 10
167.3450234192399
 20
86.00002447594005
 30
0.0
 11
165.8450234192399
 21
84.50002447594005
 31
0.0
  0
LINE
  5
1E3
330
1F
100
AcDbEntity
  8
LAY-1
  6
CONTINUOUS
 62
     3
100
AcDbLine
 10
167.3449314192397
 20
86.0000554760361
 30
0.0
 11
167.3449314192397
 21
87.99999999999622
 31
0.0
  0
LINE
  5
1E4
330
1F
100
AcDbEntity
  8
LAY-1
  6
CONTINUOUS
 62
     3
100
AcDbLine
 10
167.3449314192399
 20
98.99999999999622
 30
0.0
 11
167.3449314192399
 21
102.0000002079869
 31
0.0
  0
LINE
  5
1E5
330
1F
100
AcDbEntity
  8
LAY-1
  6
CONTINUOUS
 62
     3
100
AcDbLine
 10
157.3449624192399
 20
86.00002447594005
 30
0.0
 11
157.3449624192399
 21
87.99999999999619
 31
0.0
  0
LINE
  5
1E6
330
1F
100
AcDbEntity
  8
LAY-1
  6
CONTINUOUS
 62
     3
100
AcDbLine
 10
157.3449624192399
 20
98.99999999999619
 30
0.0
 11
157.3449624192399
 21
102.0000001474282
 31
0.0
  0
LINE
  5
1E7
330
1F
100
AcDbEntity
  8
LAY-1
  6
CONTINUOUS
 62
     1
100
AcDbLine
 10
166.5330114192398
 20
102.0000002503781
 30
0.0
 11
166.5330114192398
 21
98.99999999999622
 31
0.0
  0
LINE
  5
1E8
330
1F
100
AcDbEntity
  8
LAY-1
  6
CONTINUOUS
 62
     1
100
AcDbLine
 10
166.5330114192398
 20
87.99999999999622
 30
0.0
 11
166.5330114192399
 21
85.18798247594009
 31
0.0
  0
LINE
  5
1E9
330
1F
100
AcDbEntity
  8
LAY-1
  6
CONTINUOUS
 62
     1
100
AcDbLine
 10
158.1569734192398
 20
102.000000250378
 30
0.0
 11
158.1569734192398
 21
98.99999999999619
 31
0.0
  0
LINE
  5
1EA
330
1F
100
AcDbEntity
  8
LAY-1
  6
CONTINUOUS
 62
     1
100
AcDbLine
 10
158.1569734192399
 20
87.99999999999619
 30
0.0
 11
158.1569734192399
 21
85.18798247594006
 31
0.0
  0
LINE
  5
1EB
330
1F
100
AcDbEntity
  8
LAY-1
  6
CONTINUOUS
 62
     3
100
AcDbLine
 10
174.3449314192399
 20
65.99999999999613
 30
0.0
 11
174.3449314192399
 21
54.99999999999646
 31
0.0
  0
ARC
  5
1EC
330
1F
100
AcDbEntity
  8
LAY-1
  6
CONTINUOUS
 62
     3
100
AcDbCircle
 10
176.34493141924
 20
59.39547213281767
 30
0.0
 40
2.0
100
AcDbArc
 50
78.9964591482508
 51
180.0
  0
LINE
  5
1ED
330
1F
100
AcDbEntity
  8
LAY-1
  6
CONTINUOUS
 62
     3
100
AcDbLine
 10
162.3449314192398
 20
39.49997552405387
 30
0.0
 11
171.5449314192368
 21
39.4999681640554
 31
0.0
  0
LINE
  5
1EE
330
1F
100
AcDbEntity
  8
LAY-1
  6
CONTINUOUS
 62
     3
100
AcDbLine
 10
171.5449314192369
 20
39.49996816405242
 30
0.0
 11
171.5449314192368
 21
41.99996816405621
 31
0.0
  0
LINE
  5
1EF
330
1F
100
AcDbEntity
  8
LAY-1
  6
CONTINUOUS
 62
     3
100
AcDbLine
 10
162.3449314192397
 20
39.49997552405387
 30
0.0
 11
153.1449314192426
 21
39.49996816405542
 31
0.0
  0
LINE
  5
1F0
330
1F
100
AcDbEntity
  8
LAY-1
  6
CONTINUOUS
 62
     3
100
AcDbLine
 10
153.1449314192426
 20
39.49996816405244
 30
0.0
 11
153.1449314192426
 21
41.99996816405623
 31
0.0
  0
LINE
  5
1F1
330
1F
100
AcDbEntity
  8
LAY-1
  6
CONTINUOUS
 62
     3
100
AcDbLine
 10
162.8449374192198
 20
39.49997512405244
 30
0.0
 11
161.8449394192198
 21
41.99997592405244
 31
0.0
  0
LINE
  5
1F2
330
1F
100
AcDbEntity
  8
LAY-1
  6
CONTINUOUS
 62
     3
100
AcDbLine
 10
152.5299294192398
 20
39.49997552405246
 30
0.0
 11
172.1599334192398
 21
39.49997552405244
 31
0.0
  0
LINE
  5
1F3
330
1F
100
AcDbEntity
  8
LAY-1
  6
CONTINUOUS
 62
     3
100
AcDbLine
 10
170.5949924192398
 20
32.49997552405244
 30
0.0
 11
154.0949924192398
 21
32.49997552405246
 31
0.0
  0
LINE
  5
1F4
330
1F
100
AcDbEntity
  8
LAY-1
  6
CONTINUOUS
 62
     3
100
AcDbLine
 10
154.0949924192398
 20
32.49997552405246
 30
0.0
 11
152.5299294192398
 21
33.40353952405248
 31
0.0
  0
ARC
  5
1F5
330
1F
100
AcDbEntity
  8
LAY-1
  6
CONTINUOUS
 62
     3
100
AcDbCircle
 10
162.3445804192399
 20
46.27829552405246
 30
0.0
 40
13.778545
100
AcDbArc
 50
249.1364492875078
 51
290.8667416760508
  0
ARC
  5
1F6
330
1F
100
AcDbEntity
  8
LAY-1
  6
CONTINUOUS
 62
     3
100
AcDbCircle
 10
154.0496734192398
 20
39.30716552405245
 30
0.0
 40
6.807614
100
AcDbArc
 50
270.3814378520614
 51
299.8500896501275
  0
LINE
  5
1F7
330
1F
100
AcDbEntity
  8
LAY-1
  6
CONTINUOUS
 62
     3
100
AcDbLine
 10
170.5949924192398
 20
32.49997552405244
 30
0.0
 11
172.1600564192398
 21
33.40353952405246
 31
0.0
  0
ARC
  5
1F8
330
1F
100
AcDbEntity
  8
LAY-1
  6
CONTINUOUS
 62
     3
100
AcDbCircle
 10
170.6403114192398
 20
39.30716552405243
 30
0.0
 40
6.807614
100
AcDbArc
 50
240.1499103498725
 51
269.6185621479386
  0
LINE
  5
1F9
330
1F
100
AcDbEntity
  8
LAY-1
  6
CONTINUOUS
 62
     3
100
AcDbLine
 10
152.5299294192398
 20
39.49997552405246
 30
0.0
 11
152.5298984192398
 21
33.40360052405246
 31
0.0
  0
LINE
  5
1FA
330
1F
100
AcDbEntity
  8
LAY-1
  6
CONTINUOUS
 62
     3
100
AcDbLine
 10
157.4375824192398
 20
39.49991452405246
 30
0.0
 11
157.4375824192398
 21
33.40353952405247
 31
0.0
  0
LINE
  5
1FB
330
1F
100
AcDbEntity
  8
LAY-1
  6
CONTINUOUS
 62
     3
100
AcDbLine
 10
167.2524174192398
 20
39.49991452405246
 30
0.0
 11
167.2524174192398
 21
33.40353952405246
 31
0.0
  0
LINE
  5
1FC
330
1F
100
AcDbEntity
  8
LAY-1
  6
CONTINUOUS
 62
     3
100
AcDbLine
 10
172.1600564192398
 20
39.49997552405244
 30
0.0
 11
172.1600864192398
 21
33.40360052405244
 31
0.0
  0
LINE
  5
1FD
330
1F
100
AcDbEntity
  8
LAY-1
  6
CONTINUOUS
 62
     3
100
AcDbLine
 10
167.3449314192399
 20
54.9999999999963
 30
0.0
 11
167.3449314192399
 21
51.99999979200566
 31
0.0
  0
LINE
  5
1FE
330
1F
100
AcDbEntity
  8
LAY-1
  6
CONTINUOUS
 62
     3
100
AcDbLine
 10
157.3449624192399
 20
54.99999999999631
 30
0.0
 11
157.3449624192399
 21
51.99999985256429
 31
0.0
  0
LINE
  5
1FF
330
1F
100
AcDbEntity
  8
LAY-1
  6
CONTINUOUS
 62
     1
100
AcDbLine
 10
166.5330114192398
 20
51.99999974961446
 30
0.0
 11
166.5330114192398
 21
54.99999999999632
 31
0.0
  0
LINE
  5
200
330
1F
100
AcDbEntity
  8
LAY-1
  6
CONTINUOUS
 62
     1
100
AcDbLine
 10
158.1569734192399
 20
51.99999974961447
 30
0.0
 11
158.1569734192399
 21
54.99999999999633
 31
0.0
  0
LINE
  5
201
330
1F
100
AcDbEntity
  8
LAY-1
  6
CONTINUOUS
 62
     3
100
AcDbLine
 10
165.8450234192399
 20
69.49997552405247
 30
0.0
 11
158.8449624192399
 21
69.49997552405249
 31
0.0
  0
LINE
  5
202
330
1F
100
AcDbEntity
  8
LAY-1
  6
CONTINUOUS
 62
     3
100
AcDbLine
 10
157.3449624192399
 20
67.99997552405247
 30
0.0
 11
158.8449624192399
 21
69.49997552405249
 31
0.0
  0
LINE
  5
203
330
1F
100
AcDbEntity
  8
LAY-1
  6
CONTINUOUS
 62
     3
100
AcDbLine
 10
167.3450234192399
 20
67.99994452405244
 30
0.0
 11
157.3449624192399
 21
67.99997552405247
 31
0.0
  0
LINE
  5
204
330
1F
100
AcDbEntity
  8
LAY-1
  6
CONTINUOUS
 62
     3
100
AcDbLine
 10
167.3450234192399
 20
67.99997552405247
 30
0.0
 11
165.8450234192399
 21
69.49997552405247
 31
0.0
  0
LINE
  5
205
330
1F
100
AcDbEntity
  8
LAY-1
  6
CONTINUOUS
 62
     3
100
AcDbLine
 10
167.3449314192398
 20
67.99994452395643
 30
0.0
 11
167.3449314192398
 21
65.9999999999963
 31
0.0
  0
LINE
  5
206
330
1F
100
AcDbEntity
  8
LAY-1
  6
CONTINUOUS
 62
     3
100
AcDbLine
 10
157.3449624192399
 20
67.99997552405245
 30
0.0
 11
157.3449624192399
 21
65.9999999999963
 31
0.0
  0
LINE
  5
207
330
1F
100
AcDbEntity
  8
LAY-1
  6
CONTINUOUS
 62
     1
100
AcDbLine
 10
166.5330114192399
 20
65.9999999999963
 30
0.0
 11
166.5330114192399
 21
68.81201752405244
 31
0.0
  0
LINE
  5
208
330
1F
100
AcDbEntity
  8
LAY-1
  6
CONTINUOUS
 62
     1
100
AcDbLine
 10
158.1569734192399
 20
65.99999999999633
 30
0.0
 11
158.1569734192399
 21
68.81201752405245
 31
0.0
  0
LINE
  5
209
330
1F
100
AcDbEntity
  8
LAY-1
  6
EXLTYPE3
 62
     1
100
AcDbLine
 10
162.3449314192398
 20
29.99999999999244
 30
0.0
 11
162.3449314192398
 21
71.99999999999244
 31
0.0
  0
LINE
  5
20A
330
1F
100
AcDbEntity
  8
LAY-1
  6
CONTINUOUS
 62
     3
100
AcDbLine
 10
174.3449394192649
 20
51.99999974961445
 30
0.0
 11
174.3449394192649
 21
41.9999659240503
 31
0.0
  0
LINE
  5
20B
330
1F
100
AcDbEntity
  8
LAY-1
  6
CONTINUOUS
 62
     3
100
AcDbLine
 10
161.84494461922
 20
114.50002487594
 30
0.0
 11
162.84494261922
 21
112.00002407594
 31
0.0
  0
LINE
  5
20C
330
1F
100
AcDbEntity
  8
LAY-1
  6
CONTINUOUS
 62
     3
100
AcDbLine
 10
103.15507978074
 20
41.999975924038
 30
0.0
 11
104.15507778074
 21
39.499975124038
 31
0.0
  0
CIRCLE
  5
20D
330
1F
100
AcDbEntity
  8
LAY-1
  6
CONTINUOUS
 62
     3
100
AcDbCircle
 10
305.0
 20
77.0
 30
0.0
 40
12.5
  0
CIRCLE
  5
20E
330
1F
100
AcDbEntity
  8
LAY-1
  6
CONTINUOUS
 62
     3
100
AcDbCircle
 10
305.0
 20
77.0
 30
0.0
 40
33.5
  0
CIRCLE
  5
20F
330
1F
100
AcDbEntity
  8
LAY-1
  6
CONTINUOUS
 62
     3
100
AcDbCircle
 10
305.0
 20
77.0
 30
0.0
 40
62.5
  0
CIRCLE
  5
210
330
1F
100
AcDbEntity
  8
LAY-1
  6
EXLTYPE3
 62
     1
100
AcDbCircle
 10
305.0
 20
77.0
 30
0.0
 40
45.0
  0
CIRCLE
  5
211
330
1F
100
AcDbEntity
  8
LAY-1
  6
CONTINUOUS
 62
     3
100
AcDbCircle
 10
336.8198051534
 20
108.81980515339
 30
0.0
 40
9.500000000000249
  0
LINE
  5
212
330
1F
100
AcDbEntity
  8
LAY-1
  6
EXLTYPE3
 62
     1
100
AcDbLine
 10
328.6880771697548
 20
100.6880771697438
 30
0.0
 11
348.0156625221905
 21
120.0156625221795
 31
0.0
  0
LINE
  5
213
330
1F
100
AcDbEntity
  8
LAY-1
  6
EXLTYPE3
 62
     1
100
AcDbLine
 10
305.0
 20
145.0
 30
0.0
 11
305.0
 21
9.0
 31
0.0
  0
LINE
  5
214
330
1F
100
AcDbEntity
  8
LAY-1
  6
EXLTYPE3
 62
     1
100
AcDbLine
 10
237.0
 20
77.0
 30
0.0
 11
373.0
 21
77.00000000000003
 31
0.0
  0
CIRCLE
  5
215
330
1F
100
AcDbEntity
  8
LAY-1
  6
CONTINUOUS
 62
     3
100
AcDbCircle
 10
273.1801948466
 20
108.81980515339
 30
0.0
 40
9.500000000000249
  0
LINE
  5
216
330
1F
100
AcDbEntity
  8
LAY-1
  6
EXLTYPE3
 62
     1
100
AcDbLine
 10
281.3119228302452
 20
100.6880771697438
 30
0.0
 11
261.9843374778095
 21
120.0156625221795
 31
0.0
  0
CIRCLE
  5
217
330
1F
100
AcDbEntity
  8
LAY-1
  6
CONTINUOUS
 62
     3
100
AcDbCircle
 10
336.8198051534
 20
45.18019484661005
 30
0.0
 40
9.500000000000249
  0
LINE
  5
218
330
1F
100
AcDbEntity
  8
LAY-1
  6
EXLTYPE3
 62
     1
100
AcDbLine
 10
328.6880771697548
 20
53.31192283025621
 30
0.0
 11
348.0156625221905
 21
33.98433747782057
 31
0.0
  0
CIRCLE
  5
219
330
1F
100
AcDbEntity
  8
LAY-1
  6
CONTINUOUS
 62
     3
100
AcDbCircle
 10
273.1801948466
 20
45.18019484661001
 30
0.0
 40
9.500000000000249
  0
LINE
  5
21A
330
1F
100
AcDbEntity
  8
LAY-1
  6
EXLTYPE3
 62
     1
100
AcDbLine
 10
281.3119228302452
 20
53.31192283025618
 30
0.0
 11
261.9843374778095
 21
33.9843374778205
 31
0.0
  0
LINE
  5
21B
330
1F
100
AcDbEntity
  8
LAY-1
  6
EXLTYPE3
 62
     1
100
AcDbLine
 10
133.0
 20
36.99999999999999
 30
0.0
 11
132.9999999999999
 21
117.0
 31
0.0
  0
TEXT
  5
21D
330
1F
100
AcDbEntity
  8
LAY-1
  6
CONTINUOUS
 62
     3
100
AcDbText
 10
284.0
 20
241.5625
 30
0.0
 40
2.733242134062928
  1
ＳＴＡＩＮＬＥＳＳ　ＳＴＥＥＬ
  7
EXCADTTF1
 72
     5
 11
344.0
 21
241.5625
 31
0.0
100
AcDbText
  0
TEXT
  5
21E
330
1F
100
AcDbEntity
  8
LAY-1
  6
CONTINUOUS
 62
     3
100
AcDbText
 10
284.0
 20
233.5625
 30
0.0
 40
2.733242134062928
  1
ＳＩＧＨＴ　ＧＬＡＳＳ
  7
EXCADTTF1
 72
     5
 11
328.0
 21
233.5625
 31
0.0
100
AcDbText
  0
TEXT
  5
21F
330
1F
100
AcDbEntity
  8
LAY-1
  6
CONTINUOUS
 62
     3
100
AcDbText
 10
284.0
 20
225.5625
 30
0.0
 40
2.733242134062928
  1
１０ＦＧＬ－１３Ａ
  7
EXCADTTF1
 72
     5
 11
320.0
 21
225.5625
 31
0.0
100
AcDbText
  0
TEXT
  5
220
330
1F
100
AcDbEntity
  8
LAY-1
  6
CONTINUOUS
 62
     3
100
AcDbText
 10
284.0
 20
217.5625
 30
0.0
 40
2.733242134062928
  1
１０Ｋ－２５Ａ
  7
EXCADTTF1
 72
     5
 11
312.0
 21
217.5625
 31
0.0
100
AcDbText
  0
ENDSEC
  0
SECTION
  2
OBJECTS
  0
DICTIONARY
  5
C
330
0
100
AcDbDictionary
  3
ACAD_GROUP
350
D
  3
ACAD_LAYOUT
350
1A
  3
ACAD_MATERIAL
350
43
  3
ACAD_MLEADERSTYLE
350
243
  3
ACAD_MLINESTYLE
350
17
  3
ACAD_PLOTSETTINGS
350
19
  3
ACAD_SCALELIST
350
47
  3
ACAD_VISUALSTYLE
350
2A
  3
ACDBHEADERROUNDTRIPXREC
350
221
  3
ACDBVARIABLEDICTIONARY
350
241
  0
DICTIONARY
  5
D
102
{ACAD_REACTORS
330
C
102
}
330
C
100
AcDbDictionary
  0
DICTIONARY
  5
1A
102
{ACAD_REACTORS
330
C
102
}
330
C
100
AcDbDictionary
  0
DICTIONARY
  5
43
102
{ACAD_REACTORS
330
C
102
}
330
C
100
AcDbDictionary
  3
BYBLOCK
350
45
  3
BYLAYER
350
44
  3
GLOBAL
350
46
  0
DICTIONARY
  5
243
102
{ACAD_REACTORS
330
C
102
}
330
C
100
AcDbDictionary
  0
DICTIONARY
  5
17
102
{ACAD_REACTORS
330
C
102
}
330
C
100
AcDbDictionary
  3
STANDARD
350
18
  0
DICTIONARY
  5
19
102
{ACAD_REACTORS
330
C
102
}
330
C
100
AcDbDictionary
  0
DICTIONARY
  5
47
102
{ACAD_REACTORS
330
C
102
}
330
C
100
AcDbDictionary
  3
A0
350
48
  3
A1
350
49
  3
A2
350
4A
  3
A3
350
4B
  3
A4
350
4C
  3
A5
350
4D
  3
A6
350
4E
  3
A7
350
4F
  3
A8
350
50
  3
A9
350
51
  3
B0
350
52
  3
B1
350
53
  3
B2
350
54
  3
B3
350
55
  3
B4
350
56
  3
B5
350
57
  3
B6
350
58
  3
B7
350
59
  3
B8
350
5A
  3
B9
350
5B
  3
C0
350
5C
  3
C1
350
5D
  3
C2
350
5E
  3
C3
350
5F
  3
C4
350
60
  3
C5
350
61
  3
C6
350
62
  3
C7
350
63
  3
C8
350
64
  3
C9
350
65
  3
D0
350
66
  3
D1
350
67
  3
D2
350
68
  0
DICTIONARY
  5
2A
102
{ACAD_REACTORS
330
C
102
}
330
C
100
AcDbDictionary
  3
2DWIREFRAME
350
2F
  3
BASIC
350
32
  3
BRIGHTEN
350
36
  3
COLORCHANGE
350
3A
  3
CONCEPTUAL
350
34
  3
DIM
350
35
  3
EDGECOLOROFF
350
3D
  3
FACEPATTERN
350
39
  3
FLAT
350
2B
  3
FLATWITHEDGES
350
2C
  3
GOURAUD
350
2D
  3
GOURAUDWITHEDGES
350
2E
  3
HIDDEN
350
31
  3
JITTEROFF
350
3B
  3
LINEPATTERN
350
38
  3
OVERHANGOFF
350
3C
  3
REALISTIC
350
33
  3
SHADED
350
42
  3
SHADED_WITH_EDGES
350
41
  3
SHADES_OF_GRAY
350
3E
  3
SKETCHY
350
3F
  3
THICKEN
350
37
  3
WIREFRAME
350
30
  3
X-RAY
350
40
  0
DICTIONARY
  5
221
102
{ACAD_REACTORS
330
C
102
}
330
C
100
AcDbDictionary
  3
CEPSNTYPE
350
22A
  3
DIMSTYLEDATA
350
240
  3
FINGERPRINTGUID
350
22B
  3
HYPERLINKBASE
350
224
  3
INSUNITS
350
229
  3
LAYOUTDICT
350
226
  3
LWETCUNION
350
228
  3
PLOTSETDICT
350
227
  3
PSVPSCALE
350
22D
  3
PUCSBASE
350
230
  3
PUCSORGBACK
350
236
  3
PUCSORGBOTTOM
350
232
  3
PUCSORGFRONT
350
235
  3
PUCSORGLEFT
350
233
  3
PUCSORGRIGHT
350
234
  3
PUCSORGTOP
350
231
  3
PUCSORTHOREF
350
22E
  3
PUCSORTHOVIEW
350
22F
  3
STYLESHEET
350
225
  3
TSTACKALIGN
350
222
  3
TSTACKSIZE
350
223
  3
UCSBASE
350
239
  3
UCSORGBACK
350
23F
  3
UCSORGBOTTOM
350
23B
  3
UCSORGFRONT
350
23E
  3
UCSORGLEFT
350
23C
  3
UCSORGRIGHT
350
23D
  3
UCSORGTOP
350
23A
  3
UCSORTHOREF
350
237
  3
UCSORTHOVIEW
350
238
  3
VERSIONGUID
350
22C
  0
DICTIONARY
  5
241
102
{ACAD_REACTORS
330
C
102
}
330
C
100
AcDbDictionary
  3
CANNOSCALE
350
24A
  3
DIMASSOC
350
248
  3
HIDETEXT
350
249
  3
MSLTSCALE
350
24B
  3
PSOLHEIGHT
350
245
  3
PSOLWIDTH
350
244
  0
MATERIAL
  5
45
102
{ACAD_REACTORS
330
43
102
}
102
{ACAD_XDICTIONARY
360
24E
102
}
330
43
100
AcDbMaterial
  1
BYBLOCK
  0
MATERIAL
  5
44
102
{ACAD_REACTORS
330
43
102
}
102
{ACAD_XDICTIONARY
360
24C
102
}
330
43
100
AcDbMaterial
  1
BYLAYER
  0
MATERIAL
  5
46
102
{ACAD_REACTORS
330
43
102
}
102
{ACAD_XDICTIONARY
360
250
102
}
330
43
100
AcDbMaterial
  1
GLOBAL
  0
MLINESTYLE
  5
18
102
{ACAD_REACTORS
330
17
102
}
330
17
100
AcDbMlineStyle
  2
Standard
 70
     0
  3

 62
   256
 51
90.0
 52
90.0
 71
     2
 49
0.5
 62
   256
  6
BYLAYER
 49
-0.5
 62
   256
  6
BYLAYER
  0
ACAD_PROXY_OBJECT
  5
48
102
{ACAD_REACTORS
330
47
102
}
330
47
100
AcDbProxyObject
 90
      499
 91
      503
 93
       41
310
903313A31580
  0
ACAD_PROXY_OBJECT
  5
49
102
{ACAD_REACTORS
330
47
102
}
330
47
100
AcDbProxyObject
 90
      499
 91
      503
 93
      105
310
903313A324000000000000004000
  0
ACAD_PROXY_OBJECT
  5
4A
102
{ACAD_REACTORS
330
47
102
}
330
47
100
AcDbProxyObject
 90
      499
 91
      503
 93
      105
310
903313A344000000000000104000
  0
ACAD_PROXY_OBJECT
  5
4B
102
{ACAD_REACTORS
330
47
102
}
330
47
100
AcDbProxyObject
 90
      499
 91
      503
 93
      105
310
903313A354000000000000144000
  0
ACAD_PROXY_OBJECT
  5
4C
102
{ACAD_REACTORS
330
47
102
}
330
47
100
AcDbProxyObject
 90
      499
 91
      503
 93
      105
310
903313A384000000000000204000
  0
ACAD_PROXY_OBJECT
  5
4D
102
{ACAD_REACTORS
330
47
102
}
330
47
100
AcDbProxyObject
 90
      499
 91
      503
 93
      113
310
904313A31304000000000000244000
  0
ACAD_PROXY_OBJECT
  5
4E
102
{ACAD_REACTORS
330
47
102
}
330
47
100
AcDbProxyObject
 90
      499
 91
      503
 93
      113
310
904313A31364000000000000304000
  0
ACAD_PROXY_OBJECT
  5
4F
102
{ACAD_REACTORS
330
47
102
}
330
47
100
AcDbProxyObject
 90
      499
 91
      503
 93
      113
310
904313A32304000000000000344000
  0
ACAD_PROXY_OBJECT
  5
50
102
{ACAD_REACTORS
330
47
102
}
330
47
100
AcDbProxyObject
 90
      499
 91
      503
 93
      113
310
904313A333040000000000003E4000
  0
ACAD_PROXY_OBJECT
  5
51
102
{ACAD_REACTORS
330
47
102
}
330
47
100
AcDbProxyObject
 90
      499
 91
      503
 93
      113
310
904313A34304000000000000444000
  0
ACAD_PROXY_OBJECT
  5
52
102
{ACAD_REACTORS
330
47
102
}
330
47
100
AcDbProxyObject
 90
      499
 91
      503
 93
      113
310
904313A35304000000000000494000
  0
ACAD_PROXY_OBJECT
  5
53
102
{ACAD_REACTORS
330
47
102
}
330
47
100
AcDbProxyObject
 90
      499
 91
      503
 93
      121
310
905313A3130304000000000000594000
  0
ACAD_PROXY_OBJECT
  5
54
102
{ACAD_REACTORS
330
47
102
}
330
47
100
AcDbProxyObject
 90
      499
 91
      503
 93
      105
310
903323A310000000000000010100
  0
ACAD_PROXY_OBJECT
  5
55
102
{ACAD_REACTORS
330
47
102
}
330
47
100
AcDbProxyObject
 90
      499
 91
      503
 93
      105
310
903343A310000000000000410100
  0
ACAD_PROXY_OBJECT
  5
56
102
{ACAD_REACTORS
330
47
102
}
330
47
100
AcDbProxyObject
 90
      499
 91
      503
 93
      105
310
903383A310000000000000810100
  0
ACAD_PROXY_OBJECT
  5
57
102
{ACAD_REACTORS
330
47
102
}
330
47
100
AcDbProxyObject
 90
      499
 91
      503
 93
      113
310
90431303A310000000000000910100
  0
ACAD_PROXY_OBJECT
  5
58
102
{ACAD_REACTORS
330
47
102
}
330
47
100
AcDbProxyObject
 90
      499
 91
      503
 93
      121
310
9053130303A310000000000001650100
  0
ACAD_PROXY_OBJECT
  5
59
102
{ACAD_REACTORS
330
47
102
}
330
47
100
AcDbProxyObject
 90
      499
 91
      503
 93
      257
310
90E312F31323822203D2031272D3022000000000000200FC000000000000284000
  0
ACAD_PROXY_OBJECT
  5
5A
102
{ACAD_REACTORS
330
47
102
}
330
47
100
AcDbProxyObject
 90
      499
 91
      503
 93
      249
310
90D312F363422203D2031272D3022000000000000240FC000000000000284000
  0
ACAD_PROXY_OBJECT
  5
5B
102
{ACAD_REACTORS
330
47
102
}
330
47
100
AcDbProxyObject
 90
      499
 91
      503
 93
      249
310
90D312F333222203D2031272D3022000000000000280FC000000000000284000
  0
ACAD_PROXY_OBJECT
  5
5C
102
{ACAD_REACTORS
330
47
102
}
330
47
100
AcDbProxyObject
 90
      499
 91
      503
 93
      249
310
90D312F313622203D2031272D30220000000000002C0FC000000000000284000
  0
ACAD_PROXY_OBJECT
  5
5D
102
{ACAD_REACTORS
330
47
102
}
330
47
100
AcDbProxyObject
 90
      499
 91
      503
 93
      249
310
90D332F333222203D2031272D30220000000000002E0FC000000000000284000
  0
ACAD_PROXY_OBJECT
  5
5E
102
{ACAD_REACTORS
330
47
102
}
330
47
100
AcDbProxyObject
 90
      499
 91
      503
 93
      241
310
90C312F3822203D2031272D3022000000000000300FC000000000000284000
  0
ACAD_PROXY_OBJECT
  5
5F
102
{ACAD_REACTORS
330
47
102
}
330
47
100
AcDbProxyObject
 90
      499
 91
      503
 93
      249
310
90D332F313622203D2031272D3022000000000000320FC000000000000284000
  0
ACAD_PROXY_OBJECT
  5
60
102
{ACAD_REACTORS
330
47
102
}
330
47
100
AcDbProxyObject
 90
      499
 91
      503
 93
      241
310
90C312F3422203D2031272D3022000000000000340FC000000000000284000
  0
ACAD_PROXY_OBJECT
  5
61
102
{ACAD_REACTORS
330
47
102
}
330
47
100
AcDbProxyObject
 90
      499
 91
      503
 93
      241
310
90C332F3822203D2031272D3022000000000000360FC000000000000284000
  0
ACAD_PROXY_OBJECT
  5
62
102
{ACAD_REACTORS
330
47
102
}
330
47
100
AcDbProxyObject
 90
      499
 91
      503
 93
      241
310
90C312F3222203D2031272D3022000000000000380FC000000000000284000
  0
ACAD_PROXY_OBJECT
  5
63
102
{ACAD_REACTORS
330
47
102
}
330
47
100
AcDbProxyObject
 90
      499
 91
      503
 93
      241
310
90C332F3422203D2031272D30220000000000003A0FC000000000000284000
  0
ACAD_PROXY_OBJECT
  5
64
102
{ACAD_REACTORS
330
47
102
}
330
47
100
AcDbProxyObject
 90
      499
 91
      503
 93
      161
310
90A3122203D2031272D30224000000000000284000
  0
ACAD_PROXY_OBJECT
  5
65
102
{ACAD_REACTORS
330
47
102
}
330
47
100
AcDbProxyObject
 90
      499
 91
      503
 93
      257
310
90E312D312F3222203D2031272D30220000000000003E0FC000000000000284000
  0
ACAD_PROXY_OBJECT
  5
66
102
{ACAD_REACTORS
330
47
102
}
330
47
100
AcDbProxyObject
 90
      499
 91
      503
 93
      225
310
90A3322203D2031272D302200000000000002100000000000000284000
  0
ACAD_PROXY_OBJECT
  5
67
102
{ACAD_REACTORS
330
47
102
}
330
47
100
AcDbProxyObject
 90
      499
 91
      503
 93
      225
310
90A3622203D2031272D302200000000000006100000000000000284000
  0
ACAD_PROXY_OBJECT
  5
68
102
{ACAD_REACTORS
330
47
102
}
330
47
100
AcDbProxyObject
 90
      499
 91
      503
 93
      249
310
90D31272D3022203D2031272D30220000000000000A100000000000000284000
  0
ACAD_PROXY_OBJECT
  5
2F
102
{ACAD_REACTORS
330
2A
102
}
330
2A
100
AcDbProxyObject
 90
      499
 91
      501
 93
      436
310
42CC9915DA5C99599C985B595049028333333333333E33F0000000000000F90107901411070040501600405405064090741402480A0340
1001
ACAD
1000
AcDbSavedByObjectVersion
1070
     0
  0
ACAD_PROXY_OBJECT
  5
32
102
{ACAD_REACTORS
330
2A
102
}
330
2A
100
AcDbProxyObject
 90
      499
 91
      501
 93
      388
310
4150985CDA58D07406404333333333333E33F0000000000000F90107A41107004050150841D405064090741402480A0350
1001
ACAD
1000
AcDbSavedByObjectVersion
1070
     0
  0
ACAD_PROXY_OBJECT
  5
36
102
{ACAD_REACTORS
330
2A
102
}
330
2A
100
AcDbProxyObject
 90
      499
 91
      501
 93
      428
310
42109C9A59DA1D195B90C409028333333333333E33F0000000000000F9010790141107004050150841D405064090741402480A029950
1001
ACAD
1000
AcDbSavedByObjectVersion
1070
     0
  0
ACAD_PROXY_OBJECT
  5
3A
102
{ACAD_REACTORS
330
2A
102
}
330
2A
100
AcDbProxyObject
 90
      499
 91
      501
 93
      452
310
42D0DBDB1BDC90DA185B99D95104090240C333333333333E33F0000000000000F90108901411070040501508421405064090741402480A0350
1001
ACAD
1000
AcDbSavedByObjectVersion
1070
     0
  0
ACAD_PROXY_OBJECT
  5
34
102
{ACAD_REACTORS
330
2A
102
}
330
2A
100
AcDbProxyObject
 90
      499
 91
      501
 93
      500
310
4290DBDB98D95C1D1D585B10940D028333333333333E33F0000000000000F90107902409070040501000000000018199010841D405064090740C02480A0340
1001
ACAD
1000
AcDbSavedByObjectVersion
1070
     0
  0
ACAD_PROXY_OBJECT
  5
35
102
{ACAD_REACTORS
330
2A
102
}
330
2A
100
AcDbProxyObject
 90
      499
 91
      501
 93
      412
310
40D11A5B50B409028333333333333E33F0000000000000F9010790141107004050150841D405064090741402480A02677FFFFFD0
1001
ACAD
1000
AcDbSavedByObjectVersion
1070
     0
  0
ACAD_PROXY_OBJECT
  5
3D
102
{ACAD_REACTORS
330
2A
102
}
330
2A
100
AcDbProxyObject
 90
      499
 91
      501
 93
      452
310
43115919D950DBDB1BDC93D999916409028333333333333E33F0000000000000F9010790141107004050150841D405064090741402480A0350
1001
ACAD
1000
AcDbSavedByObjectVersion
1070
     0
  0
ACAD_PROXY_OBJECT
  5
39
102
{ACAD_REACTORS
330
2A
102
}
330
2A
100
AcDbProxyObject
 90
      499
 91
      501
 93
      444
310
42D19858D95C185D1D195C9B90F409028333333333333E33F0000000000000F9010790141107004050150841D405064090741402480A0350
1001
ACAD
1000
AcDbSavedByObjectVersion
1070
     0
  0
ACAD_PROXY_OBJECT
  5
2B
102
{ACAD_REACTORS
330
2A
102
}
330
2A
100
AcDbProxyObject
 90
      499
 91
      501
 93
      380
310
41119B185D240901404333333333333E33F0000000000000F9010740A907004050150841D405064090741402480A1B50
1001
ACAD
1000
AcDbSavedByObjectVersion
1070
     0
  0
ACAD_PROXY_OBJECT
  5
2C
102
{ACAD_REACTORS
330
2A
102
}
330
2A
100
AcDbProxyObject
 90
      499
 91
      501
 93
      468
310
43519B185D15DA5D1A115919D95CD0140901404333333333333E33F0000000000000F90107409019070040501600405405064090741402480A1B50
1001
ACAD
1000
AcDbSavedByObjectVersion
1070
     0
  0
ACAD_PROXY_OBJECT
  5
2D
102
{ACAD_REACTORS
330
2A
102
}
330
2A
100
AcDbProxyObject
 90
      499
 91
      501
 93
      404
310
41D1DBDD5C985D5910240902404333333333333E33F0000000000000F9010740A9070040501641D405064090741402480A1B50
1001
ACAD
1000
AcDbSavedByObjectVersion
1070
     0
  0
ACAD_PROXY_OBJECT
  5
2E
102
{ACAD_REACTORS
330
2A
102
}
330
2A
100
AcDbProxyObject
 90
      499
 91
      501
 93
      492
310
4411DBDD5C985D5915DA5D1A115919D95CD0340902404333333333333E33F0000000000000F90107409019070040501600405405064090741402480A1B50
1001
ACAD
1000
AcDbSavedByObjectVersion
1070
     0
  0
ACAD_PROXY_OBJECT
  5
31
102
{ACAD_REACTORS
330
2A
102
}
330
2A
100
AcDbProxyObject
 90
      499
 91
      501
 93
      476
310
41921A5919195B90640502408333333333333E33F0000000000000F901079024090700405020000000000001110200405405064090740C02480A0340
1001
ACAD
1000
AcDbSavedByObjectVersion
1070
     0
  0
ACAD_PROXY_OBJECT
  5
3B
102
{ACAD_REACTORS
330
2A
102
}
330
2A
100
AcDbProxyObject
 90
      499
 91
      501
 93
      428
310
42529A5D1D195C93D999914409028333333333333E33F0000000000000F9010790141107004050150A41D405064090741402480A0350
1001
ACAD
1000
AcDbSavedByObjectVersion
1070
     0
  0
ACAD_PROXY_OBJECT
  5
38
102
{ACAD_REACTORS
330
2A
102
}
330
2A
100
AcDbProxyObject
 90
      499
 91
      501
 93
      444
310
42D31A5B995C185D1D195C9B90E409028333333333333E33F0000000000000F9010790141107004050750841D405064090741402483A0350
1001
ACAD
1000
AcDbSavedByObjectVersion
1070
     0
  0
ACAD_PROXY_OBJECT
  5
3C
102
{ACAD_REACTORS
330
2A
102
}
330
2A
100
AcDbProxyObject
 90
      499
 91
      501
 93
      444
310
42D3DD995C9A185B99D3D999915409028333333333333E33F0000000000000F9010790141107004050150941D405064090741402480A0350
1001
ACAD
1000
AcDbSavedByObjectVersion
1070
     0
  0
ACAD_PROXY_OBJECT
  5
33
102
{ACAD_REACTORS
330
2A
102
}
330
2A
100
AcDbProxyObject
 90
      499
 91
      501
 93
      428
310
425499585B1A5CDD1A58D08409038333333333333E33F0000000000000F9010740A907004050150800405405064090740C02480A1B40
1001
ACAD
1000
AcDbSavedByObjectVersion
1070
     0
  0
ACAD_PROXY_OBJECT
  5
42
102
{ACAD_REACTORS
330
2A
102
}
330
2A
100
AcDbProxyObject
 90
      499
 91
      501
 93
      420
310
4194DA1859195911B40902404333333333333E33F0000000000000F9010740A41107004050150800405405064090840C02480A0B40
1001
ACAD
1000
AcDbSavedByObjectVersion
1070
     0
  0
ACAD_PROXY_OBJECT
  5
41
102
{ACAD_REACTORS
330
2A
102
}
330
2A
100
AcDbProxyObject
 90
      499
 91
      501
 93
      516
310
4454DA18591959081DDA5D1A08195919D95CD1A40902404333333333333E33F0000000000000F901074090142907004050250800405405064090740C02480A0B40
1001
ACAD
1000
AcDbSavedByObjectVersion
1070
     0
  0
ACAD_PROXY_OBJECT
  5
3E
102
{ACAD_REACTORS
330
2A
102
}
330
2A
100
AcDbProxyObject
 90
      499
 91
      501
 93
      532
310
4394DA1859195CC81BD98811DC985E5174090240C333333333333E33F0000000000000F901079024090741D01000000000000111010841D405064090740C02480A0340
1001
ACAD
1000
AcDbSavedByObjectVersion
1070
     0
  0
ACAD_PROXY_OBJECT
  5
3F
102
{ACAD_REACTORS
330
2A
102
}
330
2A
100
AcDbProxyObject
 90
      499
 91
      501
 93
      476
310
41D4DAD95D18DA1E51840502408333333333333E33F0000000000000F901079024090741D01000000000000111010B41D405064090741802480A0340
1001
ACAD
1000
AcDbSavedByObjectVersion
1070
     0
  0
ACAD_PROXY_OBJECT
  5
37
102
{ACAD_REACTORS
330
2A
102
}
330
2A
100
AcDbProxyObject
 90
      499
 91
      501
 93
      412
310
41D51A1A58DAD95B90D409028333333333333E33F0000000000000F9010790141107004050150C41D405064090741402480A0350
1001
ACAD
1000
AcDbSavedByObjectVersion
1070
     0
  0
ACAD_PROXY_OBJECT
  5
30
102
{ACAD_REACTORS
330
2A
102
}
330
2A
100
AcDbProxyObject
 90
      499
 91
      501
 93
      420
310
4255DA5C99599C985B595059028333333333333E33F0000000000000F90107901411070040501600405405064090740C02480A0340
1001
ACAD
1000
AcDbSavedByObjectVersion
1070
     0
  0
ACAD_PROXY_OBJECT
  5
40
102
{ACAD_REACTORS
330
2A
102
}
330
2A
100
AcDbProxyObject
 90
      499
 91
      501
 93
      404
310
41560B54985E51940902404000000000000E03F0000000000000F9010740501907004050150841D405064090740C02480A1B40
1001
ACAD
1000
AcDbSavedByObjectVersion
1070
     0
  0
XRECORD
  5
22A
102
{ACAD_REACTORS
330
221
102
}
330
221
100
AcDbXrecord
 90
        0
  0
XRECORD
  5
240
102
{ACAD_REACTORS
330
221
102
}
330
221
100
AcDbXrecord
1000
DSTYLE
1002
{
1070
   340
340
11
1002
}
  0
XRECORD
  5
22B
102
{ACAD_REACTORS
330
221
102
}
330
221
100
AcDbXrecord
  1
{E0D0CA3F-9CD7-4202-AAF5-E0964A813478}
  0
XRECORD
  5
224
102
{ACAD_REACTORS
330
221
102
}
330
221
100
AcDbXrecord
  1

  0
XRECORD
  5
229
102
{ACAD_REACTORS
330
221
102
}
330
221
100
AcDbXrecord
 90
        4
  0
XRECORD
  5
226
102
{ACAD_REACTORS
330
221
102
}
330
221
100
AcDbXrecord
340
1A
  0
XRECORD
  5
228
102
{ACAD_REACTORS
330
221
102
}
330
221
100
AcDbXrecord
 90
    10781
  0
XRECORD
  5
227
102
{ACAD_REACTORS
330
221
102
}
330
221
100
AcDbXrecord
340
19
  0
XRECORD
  5
22D
102
{ACAD_REACTORS
330
221
102
}
330
221
100
AcDbXrecord
 40
0.0
  0
XRECORD
  5
230
102
{ACAD_REACTORS
330
221
102
}
330
221
100
AcDbXrecord
340
0
  0
XRECORD
  5
236
102
{ACAD_REACTORS
330
221
102
}
330
221
100
AcDbXrecord
 10
0.0
 20
0.0
 30
0.0
  0
XRECORD
  5
232
102
{ACAD_REACTORS
330
221
102
}
330
221
100
AcDbXrecord
 10
0.0
 20
0.0
 30
0.0
  0
XRECORD
  5
235
102
{ACAD_REACTORS
330
221
102
}
330
221
100
AcDbXrecord
 10
0.0
 20
0.0
 30
0.0
  0
XRECORD
  5
233
102
{ACAD_REACTORS
330
221
102
}
330
221
100
AcDbXrecord
 10
0.0
 20
0.0
 30
0.0
  0
XRECORD
  5
234
102
{ACAD_REACTORS
330
221
102
}
330
221
100
AcDbXrecord
 10
0.0
 20
0.0
 30
0.0
  0
XRECORD
  5
231
102
{ACAD_REACTORS
330
221
102
}
330
221
100
AcDbXrecord
 10
0.0
 20
0.0
 30
0.0
  0
XRECORD
  5
22E
102
{ACAD_REACTORS
330
221
102
}
330
221
100
AcDbXrecord
340
0
  0
XRECORD
  5
22F
102
{ACAD_REACTORS
330
221
102
}
330
221
100
AcDbXrecord
 70
     0
  0
XRECORD
  5
225
102
{ACAD_REACTORS
330
221
102
}
330
221
100
AcDbXrecord
  1

  0
XRECORD
  5
222
102
{ACAD_REACTORS
330
221
102
}
330
221
100
AcDbXrecord
 90
        1
  0
XRECORD
  5
223
102
{ACAD_REACTORS
330
221
102
}
330
221
100
AcDbXrecord
 90
       70
  0
XRECORD
  5
239
102
{ACAD_REACTORS
330
221
102
}
330
221
100
AcDbXrecord
340
0
  0
XRECORD
  5
23F
102
{ACAD_REACTORS
330
221
102
}
330
221
100
AcDbXrecord
 10
0.0
 20
0.0
 30
0.0
  0
XRECORD
  5
23B
102
{ACAD_REACTORS
330
221
102
}
330
221
100
AcDbXrecord
 10
0.0
 20
0.0
 30
0.0
  0
XRECORD
  5
23E
102
{ACAD_REACTORS
330
221
102
}
330
221
100
AcDbXrecord
 10
0.0
 20
0.0
 30
0.0
  0
XRECORD
  5
23C
102
{ACAD_REACTORS
330
221
102
}
330
221
100
AcDbXrecord
 10
0.0
 20
0.0
 30
0.0
  0
XRECORD
  5
23D
102
{ACAD_REACTORS
330
221
102
}
330
221
100
AcDbXrecord
 10
0.0
 20
0.0
 30
0.0
  0
XRECORD
  5
23A
102
{ACAD_REACTORS
330
221
102
}
330
221
100
AcDbXrecord
 10
0.0
 20
0.0
 30
0.0
  0
XRECORD
  5
237
102
{ACAD_REACTORS
330
221
102
}
330
221
100
AcDbXrecord
340
0
  0
XRECORD
  5
238
102
{ACAD_REACTORS
330
221
102
}
330
221
100
AcDbXrecord
 70
     0
  0
XRECORD
  5
22C
102
{ACAD_REACTORS
330
221
102
}
330
221
100
AcDbXrecord
  1
{FAEB1C32-E019-11D5-929B-00C0DF256EC4}
  0
DICTIONARYVAR
  5
24A
102
{ACAD_REACTORS
330
241
102
}
330
241
100
DictionaryVariables
280
     0
  1
1:1
  0
DICTIONARYVAR
  5
248
102
{ACAD_REACTORS
330
241
102
}
330
241
100
DictionaryVariables
280
     0
  1
2
  0
DICTIONARYVAR
  5
249
102
{ACAD_REACTORS
330
241
102
}
330
241
100
DictionaryVariables
280
     0
  1
1
  0
DICTIONARYVAR
  5
24B
102
{ACAD_REACTORS
330
241
102
}
330
241
100
DictionaryVariables
280
     0
  1
1
  0
DICTIONARYVAR
  5
245
102
{ACAD_REACTORS
330
241
102
}
330
241
100
DictionaryVariables
280
     0
  1
80.000000
  0
DICTIONARYVAR
  5
244
102
{ACAD_REACTORS
330
241
102
}
330
241
100
DictionaryVariables
280
     0
  1
5.000000
  0
DICTIONARY
  5
24E
330
45
100
AcDbDictionary
280
     1
  3
ACAD_XREC_ROUNDTRIP
360
24F
  0
DICTIONARY
  5
24C
330
44
100
AcDbDictionary
280
     1
  3
ACAD_XREC_ROUNDTRIP
360
24D
  0
DICTIONARY
  5
250
330
46
100
AcDbDictionary
280
     1
  3
ACAD_XREC_ROUNDTRIP
360
251
  0
XRECORD
  5
24F
102
{ACAD_REACTORS
330
24E
102
}
330
24E
100
AcDbXrecord
102
MATERIAL
148
0.0
149
0.0
149
0.0
 93
        0
 94
      127
282
     0
 72
     1
 77
     1
171
     1
175
     1
179
     1
273
     0
  0
XRECORD
  5
24D
102
{ACAD_REACTORS
330
24C
102
}
330
24C
100
AcDbXrecord
102
MATERIAL
148
0.0
149
0.0
149
0.0
 93
        0
 94
      127
282
     0
 72
     1
 77
     1
171
     1
175
     1
179
     1
273
     0
  0
XRECORD
  5
251
102
{ACAD_REACTORS
330
250
102
}
330
250
100
AcDbXrecord
102
MATERIAL
148
0.0
149
0.0
149
0.0
 93
        0
 94
      127
282
     0
 72
     1
 77
     1
171
     1
175
     1
179
     1
273
     0
  0
ENDSEC
  0
EOF
