  0
SECTION
  2
HEADER
  9
$ACADVER
  1
AC1014
  9
$ACADMAINTVER
 70
     9
  9
$DWGCODEPAGE
  3
ANSI_932
  9
$INSBASE
 10
0.0
 20
0.0
 30
0.0
  9
$EXTMIN
 10
79.0
 20
62.0
 30
0.0
  9
$EXTMAX
 10
249.0
 20
173.0
 30
0.0
  9
$LIMMIN
 10
0.0
 20
0.0
  9
$LIMMAX
 10
420.0
 20
297.0
  9
$ORTHOMODE
 70
     0
  9
$REGENMODE
 70
     1
  9
$FILLMODE
 70
     1
  9
$QTEXTMODE
 70
     0
  9
$MIRRTEXT
 70
     1
  9
$DRAGMODE
 70
     2
  9
$LTSCALE
 40
1.0
  9
$OSMODE
 70
    37
  9
$ATTMODE
 70
     1
  9
$TEXTSIZE
 40
2.5
  9
$TRACEWID
 40
1.0
  9
$TEXTSTYLE
  7
STANDARD
  9
$CLAYER
  8
LAY-1
  9
$CELTYPE
  6
BYLAYER
  9
$CECOLOR
 62
   256
  9
$CELTSCALE
 40
1.0
  9
$DELOBJ
 70
     1
  9
$DISPSILH
 70
     0
  9
$DIMSCALE
 40
1.0
  9
$DIMASZ
 40
2.5
  9
$DIMEXO
 40
0.625
  9
$DIMDLI
 40
3.75
  9
$DIMRND
 40
0.0
  9
$DIMDLE
 40
0.0
  9
$DIMEXE
 40
1.25
  9
$DIMTP
 40
0.0
  9
$DIMTM
 40
0.0
  9
$DIMTXT
 40
2.5
  9
$DIMCEN
 40
2.5
  9
$DIMTSZ
 40
0.0
  9
$DIMTOL
 70
     0
  9
$DIMLIM
 70
     0
  9
$DIMTIH
 70
     0
  9
$DIMTOH
 70
     0
  9
$DIMSE1
 70
     0
  9
$DIMSE2
 70
     0
  9
$DIMTAD
 70
     1
  9
$DIMZIN
 70
     8
  9
$DIMBLK
  1

  9
$DIMASO
 70
     1
  9
$DIMSHO
 70
     1
  9
$DIMPOST
  1

  9
$DIMAPOST
  1

  9
$DIMALT
 70
     0
  9
$DIMALTD
 70
     3
  9
$DIMALTF
 40
0.03937007874016
  9
$DIMLFAC
 40
1.0
  9
$DIMTOFL
 70
     1
  9
$DIMTVP
 40
0.0
  9
$DIMTIX
 70
     0
  9
$DIMSOXD
 70
     0
  9
$DIMSAH
 70
     0
  9
$DIMBLK1
  1

  9
$DIMBLK2
  1

  9
$DIMSTYLE
  2
ISO-25
  9
$DIMCLRD
 70
     0
  9
$DIMCLRE
 70
     0
  9
$DIMCLRT
 70
     0
  9
$DIMTFAC
 40
1.0
  9
$DIMGAP
 40
0.625
  9
$DIMJUST
 70
     0
  9
$DIMSD1
 70
     0
  9
$DIMSD2
 70
     0
  9
$DIMTOLJ
 70
     0
  9
$DIMTZIN
 70
     8
  9
$DIMALTZ
 70
     0
  9
$DIMALTTZ
 70
     0
  9
$DIMFIT
 70
     3
  9
$DIMUPT
 70
     0
  9
$DIMUNIT
 70
     2
  9
$DIMDEC
 70
     2
  9
$DIMTDEC
 70
     2
  9
$DIMALTU
 70
     2
  9
$DIMALTTD
 70
     3
  9
$DIMTXSTY
  7
STANDARD
  9
$DIMAUNIT
 70
     0
  9
$LUNITS
 70
     2
  9
$LUPREC
 70
     4
  9
$SKETCHINC
 40
1.0
  9
$FILLETRAD
 40
10.0
  9
$AUNITS
 70
     0
  9
$AUPREC
 70
     0
  9
$MENU
  1
.
  9
$ELEVATION
 40
0.0
  9
$PELEVATION
 40
0.0
  9
$THICKNESS
 40
0.0
  9
$LIMCHECK
 70
     0
  9
$CHAMFERA
 40
0.0
  9
$CHAMFERB
 40
0.0
  9
$CHAMFERC
 40
0.0
  9
$CHAMFERD
 40
0.0
  9
$SKPOLY
 70
     0
  9
$TDCREATE
 40
2457423.628529259
  9
$TDUPDATE
 40
2457423.628529375
  9
$TDINDWG
 40
0.0000000116
  9
$TDUSRTIMER
 40
0.0000000116
  9
$USRTIMER
 70
     1
  9
$ANGBASE
 50
0.0
  9
$ANGDIR
 70
     0
  9
$PDMODE
 70
     0
  9
$PDSIZE
 40
0.0
  9
$PLINEWID
 40
0.0
  9
$COORDS
 70
     1
  9
$SPLFRAME
 70
     0
  9
$SPLINETYPE
 70
     6
  9
$SPLINESEGS
 70
     8
  9
$ATTDIA
 70
     0
  9
$ATTREQ
 70
     1
  9
$HANDLING
 70
     1
  9
$HANDSEED
  5
1CF
  9
$SURFTAB1
 70
     6
  9
$SURFTAB2
 70
     6
  9
$SURFTYPE
 70
     6
  9
$SURFU
 70
     6
  9
$SURFV
 70
     6
  9
$UCSNAME
  2

  9
$UCSORG
 10
0.0
 20
0.0
 30
0.0
  9
$UCSXDIR
 10
1.0
 20
0.0
 30
0.0
  9
$UCSYDIR
 10
0.0
 20
1.0
 30
0.0
  9
$PUCSNAME
  2

  9
$PUCSORG
 10
0.0
 20
0.0
 30
0.0
  9
$PUCSXDIR
 10
1.0
 20
0.0
 30
0.0
  9
$PUCSYDIR
 10
0.0
 20
1.0
 30
0.0
  9
$USERI1
 70
     0
  9
$USERI2
 70
     0
  9
$USERI3
 70
     0
  9
$USERI4
 70
     0
  9
$USERI5
 70
     0
  9
$USERR1
 40
0.0
  9
$USERR2
 40
0.0
  9
$USERR3
 40
0.0
  9
$USERR4
 40
0.0
  9
$USERR5
 40
0.0
  9
$WORLDVIEW
 70
     1
  9
$SHADEDGE
 70
     3
  9
$SHADEDIF
 70
    70
  9
$TILEMODE
 70
     1
  9
$MAXACTVP
 70
    64
  9
$PINSBASE
 10
0.0
 20
0.0
 30
0.0
  9
$PLIMCHECK
 70
     0
  9
$PEXTMIN
 10
1.000000000000000E+20
 20
1.000000000000000E+20
 30
1.000000000000000E+20
  9
$PEXTMAX
 10
-1.000000000000000E+20
 20
-1.000000000000000E+20
 30
-1.000000000000000E+20
  9
$PLIMMIN
 10
0.0
 20
0.0
  9
$PLIMMAX
 10
420.0
 20
297.0
  9
$UNITMODE
 70
     0
  9
$VISRETAIN
 70
     1
  9
$PLINEGEN
 70
     0
  9
$PSLTSCALE
 70
     1
  9
$TREEDEPTH
 70
  3020
  9
$PICKSTYLE
 70
     1
  9
$CMLSTYLE
  2
STANDARD
  9
$CMLJUST
 70
     0
  9
$CMLSCALE
 40
20.0
  9
$PROXYGRAPHICS
 70
     1
  9
$MEASUREMENT
 70
     1
  0
ENDSEC
  0
SECTION
  2
CLASSES
  0
CLASS
  1
ACDBDICTIONARYWDFLT
  2
AcDbDictionaryWithDefault
  3
ObjectDBX Classes
 90
        0
280
     0
281
     0
  0
CLASS
  1
VISUALSTYLE
  2
AcDbVisualStyle
  3
ObjectDBX Classes
 90
     4095
280
     0
281
     0
  0
CLASS
  1
MATERIAL
  2
AcDbMaterial
  3
ObjectDBX Classes
 90
     1153
280
     0
281
     0
  0
CLASS
  1
SCALE
  2
AcDbScale
  3
ObjectDBX Classes
 90
     1153
280
     0
281
     0
  0
CLASS
  1
SUN
  2
AcDbSun
  3
SCENEOE
 90
     1153
280
     0
281
     0
  0
CLASS
  1
DICTIONARYVAR
  2
AcDbDictionaryVar
  3
ObjectDBX Classes
 90
        0
280
     0
281
     0
  0
CLASS
  1
XRECORD
  2
AcDbXrecord
  3
ObjectDBX Classes
 90
        0
280
     0
281
     0
  0
CLASS
  1
LWPOLYLINE
  2
AcDbPolyline
  3
ObjectDBX Classes
 90
        0
280
     0
281
     1
  0
CLASS
  1
HATCH
  2
AcDbHatch
  3
ObjectDBX Classes
 90
        0
280
     0
281
     1
  0
CLASS
  1
ACDBPLACEHOLDER
  2
AcDbPlaceHolder
  3
ObjectDBX Classes
 90
        0
280
     0
281
     0
  0
CLASS
  1
LAYOUT
  2
AcDbLayout
  3
ObjectDBX Classes
 90
        0
280
     0
281
     0
  0
ENDSEC
  0
SECTION
  2
TABLES
  0
TABLE
  2
VPORT
  5
8
330
0
100
AcDbSymbolTable
 70
     1
  0
VPORT
  5
29
330
8
100
AcDbSymbolTableRecord
100
AcDbViewportTableRecord
  2
*ACTIVE
 70
     0
 10
0.0
 20
0.0
 11
1.0
 21
1.0
 12
164.0
 22
117.5
 13
0.0
 23
0.0
 14
10.0
 24
10.0
 15
10.0
 25
10.0
 16
0.0
 26
0.0
 36
1.0
 17
0.0
 27
0.0
 37
0.0
 40
111.0
 41
1.531531531531531
 42
50.0
 43
0.0
 44
0.0
 50
0.0
 51
0.0
 71
     0
 72
  1000
 73
     1
 74
     3
 75
     0
 76
     0
 77
     0
 78
     0
  0
ENDTAB
  0
TABLE
  2
LTYPE
  5
5
330
0
100
AcDbSymbolTable
 70
    13
  0
LTYPE
  5
14
330
5
100
AcDbSymbolTableRecord
100
AcDbLinetypeTableRecord
  2
BYBLOCK
 70
     0
  3

 72
    65
 73
     0
 40
0.0
  0
LTYPE
  5
15
330
5
100
AcDbSymbolTableRecord
100
AcDbLinetypeTableRecord
  2
BYLAYER
 70
     0
  3

 72
    65
 73
     0
 40
0.0
  0
LTYPE
  5
16
330
5
100
AcDbSymbolTableRecord
100
AcDbLinetypeTableRecord
  2
CONTINUOUS
 70
     0
  3
Solid line
 72
    65
 73
     0
 40
0.0
  0
LTYPE
  5
6A
330
5
100
AcDbSymbolTableRecord
100
AcDbLinetypeTableRecord
  2
EXLTYPE1
 70
     0
  3
破線
 72
    65
 73
     2
 40
3.8
 49
3.0
 74
     0
 49
-0.8
 74
     0
  0
LTYPE
  5
6B
330
5
100
AcDbSymbolTableRecord
100
AcDbLinetypeTableRecord
  2
EXLTYPE2
 70
     0
  3
点線
 72
    65
 73
     2
 40
2.0
 49
1.0
 74
     0
 49
-1.0
 74
     0
  0
LTYPE
  5
6C
330
5
100
AcDbSymbolTableRecord
100
AcDbLinetypeTableRecord
  2
EXLTYPE3
 70
     0
  3
一点鎖線
 72
    65
 73
     4
 40
13.0
 49
10.0
 74
     0
 49
-1.0
 74
     0
 49
1.0
 74
     0
 49
-1.0
 74
     0
  0
LTYPE
  5
6D
330
5
100
AcDbSymbolTableRecord
100
AcDbLinetypeTableRecord
  2
EXLTYPE4
 70
     0
  3
二点鎖線
 72
    65
 73
     6
 40
15.0
 49
10.0
 74
     0
 49
-1.0
 74
     0
 49
1.0
 74
     0
 49
-1.0
 74
     0
 49
1.0
 74
     0
 49
-1.0
 74
     0
  0
LTYPE
  5
6E
330
5
100
AcDbSymbolTableRecord
100
AcDbLinetypeTableRecord
  2
EXLTYPE5
 70
     0
  3
三点鎖線
 72
    65
 73
     8
 40
37.0
 49
30.0
 74
     0
 49
-1.0
 74
     0
 49
1.0
 74
     0
 49
-1.0
 74
     0
 49
1.0
 74
     0
 49
-1.0
 74
     0
 49
1.0
 74
     0
 49
-1.0
 74
     0
  0
LTYPE
  5
6F
330
5
100
AcDbSymbolTableRecord
100
AcDbLinetypeTableRecord
  2
EXLTYPE6
 70
     0
  3
四点鎖線
 72
    65
 73
    10
 40
39.0
 49
30.0
 74
     0
 49
-1.0
 74
     0
 49
1.0
 74
     0
 49
-1.0
 74
     0
 49
1.0
 74
     0
 49
-1.0
 74
     0
 49
1.0
 74
     0
 49
-1.0
 74
     0
 49
1.0
 74
     0
 49
-1.0
 74
     0
  0
LTYPE
  5
70
330
5
100
AcDbSymbolTableRecord
100
AcDbLinetypeTableRecord
  2
EXLTYPE7
 70
     0
  3
一点鎖線2
 72
    65
 73
     4
 40
7.100000000000001
 49
5.0
 74
     0
 49
-0.7
 74
     0
 49
0.7
 74
     0
 49
-0.7
 74
     0
  0
LTYPE
  5
71
330
5
100
AcDbSymbolTableRecord
100
AcDbLinetypeTableRecord
  2
EXLTYPE8
 70
     0
  3
二点鎖線3
 72
    65
 73
     6
 40
4.5
 49
2.0
 74
     0
 49
-0.5
 74
     0
 49
0.5
 74
     0
 49
-0.5
 74
     0
 49
0.5
 74
     0
 49
-0.5
 74
     0
  0
LTYPE
  5
72
330
5
100
AcDbSymbolTableRecord
100
AcDbLinetypeTableRecord
  2
EXLTYPE9
 70
     0
  3
二点鎖線2
 72
    65
 73
     6
 40
7.5
 49
5.0
 74
     0
 49
-0.5
 74
     0
 49
0.5
 74
     0
 49
-0.5
 74
     0
 49
0.5
 74
     0
 49
-0.5
 74
     0
  0
LTYPE
  5
73
330
5
100
AcDbSymbolTableRecord
100
AcDbLinetypeTableRecord
  2
EXLTYPE10
 70
     0
  3
二点鎖線3
 72
    65
 73
     6
 40
4.5
 49
2.0
 74
     0
 49
-0.5
 74
     0
 49
0.5
 74
     0
 49
-0.5
 74
     0
 49
0.5
 74
     0
 49
-0.5
 74
     0
  0
LTYPE
  5
74
330
5
100
AcDbSymbolTableRecord
100
AcDbLinetypeTableRecord
  2
EXLTYPE11
 70
     0
  3
二点鎖線2
 72
    65
 73
     6
 40
7.5
 49
5.0
 74
     0
 49
-0.5
 74
     0
 49
0.5
 74
     0
 49
-0.5
 74
     0
 49
0.5
 74
     0
 49
-0.5
 74
     0
  0
LTYPE
  5
75
330
5
100
AcDbSymbolTableRecord
100
AcDbLinetypeTableRecord
  2
EXLTYPE12
 70
     0
  3
点線2
 72
    65
 73
     2
 40
1.0
 49
0.5
 74
     0
 49
-0.5
 74
     0
  0
ENDTAB
  0
TABLE
  2
LAYER
  5
2
330
0
100
AcDbSymbolTable
 70
     3
  0
LAYER
  5
10
330
2
100
AcDbSymbolTableRecord
100
AcDbLayerTableRecord
  2
0
 70
     0
 62
     7
  6
CONTINUOUS
  0
LAYER
  5
78
330
2
100
AcDbSymbolTableRecord
100
AcDbLayerTableRecord
  2
LAY-1
 70
     0
 62
     7
  6
CONTINUOUS
  0
LAYER
  5
79
330
2
100
AcDbSymbolTableRecord
100
AcDbLayerTableRecord
  2
LAY-2
 70
     0
 62
     7
  6
CONTINUOUS
  0
ENDTAB
  0
TABLE
  2
STYLE
  5
3
330
0
100
AcDbSymbolTable
 70
     4
  0
STYLE
  5
11
330
3
100
AcDbSymbolTableRecord
100
AcDbTextStyleTableRecord
  2
STANDARD
 70
     0
 40
0.0
 41
1.0
 50
0.0
 71
     0
 42
2.5
  3
monotxt
  4
extfont
  0
STYLE
  5
76
330
3
100
AcDbSymbolTableRecord
100
AcDbTextStyleTableRecord
  2
EXCADSTD
 70
     0
 40
0.0
 41
1.0
 50
0.0
 71
     0
 42
2.5
  3
monotxt
  4
extfont
  0
STYLE
  5
77
330
3
100
AcDbSymbolTableRecord
100
AcDbTextStyleTableRecord
  2
EXCADVERT
 70
     4
 40
0.0
 41
1.0
 50
0.0
 71
     0
 42
2.5
  3
monotxt
  4
extfont
  0
STYLE
  5
199
330
3
100
AcDbSymbolTableRecord
100
AcDbTextStyleTableRecord
  2
EXCADTTF1
 70
     0
 40
0.0
 41
1.0
 50
0.0
 71
     0
 42
2.5
  3
msmincho.ttc
  4

1001
ACAD
1000
MS Mincho
1071
    32785
  0
ENDTAB
  0
TABLE
  2
VIEW
  5
6
330
0
100
AcDbSymbolTable
 70
     0
  0
ENDTAB
  0
TABLE
  2
UCS
  5
7
330
0
100
AcDbSymbolTable
 70
     0
  0
ENDTAB
  0
TABLE
  2
APPID
  5
9
330
0
100
AcDbSymbolTable
 70
     1
  0
APPID
  5
12
330
9
100
AcDbSymbolTableRecord
100
AcDbRegAppTableRecord
  2
ACAD
 70
     0
  0
ENDTAB
  0
TABLE
  2
DIMSTYLE
  5
A
330
0
100
AcDbSymbolTable
 70
     1
  0
DIMSTYLE
105
27
330
A
100
AcDbSymbolTableRecord
100
AcDbDimStyleTableRecord
  2
ISO-25
 70
     0
  3

  4

  5

  6

  7

 40
1.0
 41
2.5
 42
0.625
 43
3.75
 44
1.25
 45
0.0
 46
0.0
 47
0.0
 48
0.0
140
2.5
141
2.5
142
0.0
143
0.03937007874016
144
1.0
145
0.0
146
1.0
147
0.625
 71
     0
 72
     0
 73
     0
 74
     0
 75
     0
 76
     0
 77
     1
 78
     8
170
     0
171
     3
172
     1
173
     0
174
     0
175
     0
176
     0
177
     0
178
     0
270
     2
271
     2
272
     2
273
     2
274
     3
340
11
275
     0
280
     0
281
     0
282
     0
283
     0
284
     8
285
     0
286
     0
287
     5
288
     0
  0
ENDTAB
  0
TABLE
  2
BLOCK_RECORD
  5
1
330
0
100
AcDbSymbolTable
 70
    15
  0
BLOCK_RECORD
  5
1F
330
1
100
AcDbSymbolTableRecord
100
AcDbBlockTableRecord
  2
*MODEL_SPACE
  0
BLOCK_RECORD
  5
1B
330
1
100
AcDbSymbolTableRecord
100
AcDbBlockTableRecord
  2
*PAPER_SPACE
  0
BLOCK_RECORD
  5
7A
330
1
100
AcDbSymbolTableRecord
100
AcDbBlockTableRecord
  2
EX_NORM
  0
BLOCK_RECORD
  5
7D
330
1
100
AcDbSymbolTableRecord
100
AcDbBlockTableRecord
  2
EX_BNORM
  0
BLOCK_RECORD
  5
80
330
1
100
AcDbSymbolTableRecord
100
AcDbBlockTableRecord
  2
EX_BCIR
  0
BLOCK_RECORD
  5
83
330
1
100
AcDbSymbolTableRecord
100
AcDbBlockTableRecord
  2
EX_RCIVIL
  0
BLOCK_RECORD
  5
86
330
1
100
AcDbSymbolTableRecord
100
AcDbBlockTableRecord
  2
EX_SLANT
  0
BLOCK_RECORD
  5
89
330
1
100
AcDbSymbolTableRecord
100
AcDbBlockTableRecord
  2
EX_NONE
  0
BLOCK_RECORD
  5
8C
330
1
100
AcDbSymbolTableRecord
100
AcDbBlockTableRecord
  2
EX_CIVIL
  0
BLOCK_RECORD
  5
8F
330
1
100
AcDbSymbolTableRecord
100
AcDbBlockTableRecord
  2
EX_WCIR
  0
BLOCK_RECORD
  5
92
330
1
100
AcDbSymbolTableRecord
100
AcDbBlockTableRecord
  2
EX_WCIR2
  0
BLOCK_RECORD
  5
95
330
1
100
AcDbSymbolTableRecord
100
AcDbBlockTableRecord
  2
EX_WNORM
  0
BLOCK_RECORD
  5
98
330
1
100
AcDbSymbolTableRecord
100
AcDbBlockTableRecord
  2
EX_NNORM
  0
BLOCK_RECORD
  5
9B
330
1
100
AcDbSymbolTableRecord
100
AcDbBlockTableRecord
  2
EX_BBOX
  0
BLOCK_RECORD
  5
9E
330
1
100
AcDbSymbolTableRecord
100
AcDbBlockTableRecord
  2
EX_WBOX
  0
BLOCK_RECORD
  5
A1
330
1
100
AcDbSymbolTableRecord
100
AcDbBlockTableRecord
  2
EX_INTEGRAL
  0
ENDTAB
  0
ENDSEC
  0
SECTION
  2
BLOCKS
  0
BLOCK
  5
20
330
1F
100
AcDbEntity
  8
0
100
AcDbBlockBegin
  2
*MODEL_SPACE
 70
     0
 10
0.0
 20
0.0
 30
0.0
  3
*MODEL_SPACE
  1

  0
ENDBLK
  5
21
330
1F
100
AcDbEntity
  8
0
100
AcDbBlockEnd
  0
BLOCK
  5
1C
330
1B
100
AcDbEntity
 67
     1
  8
0
100
AcDbBlockBegin
  2
*PAPER_SPACE
 70
     0
 10
0.0
 20
0.0
 30
0.0
  3
*PAPER_SPACE
  1

  0
ENDBLK
  5
1D
330
1B
100
AcDbEntity
 67
     1
  8
0
100
AcDbBlockEnd
  0
BLOCK
  5
7B
330
7A
100
AcDbEntity
  8
0
100
AcDbBlockBegin
  2
EX_NORM
 70
     0
 10
0.0
 20
0.0
 30
0.0
  3
EX_NORM
  1
EX_NORM
  0
LINE
  5
A4
330
7A
100
AcDbEntity
  8
0
  6
CONTINUOUS
 62
     0
100
AcDbLine
 10
0.0
 20
0.0
 30
0.0
 11
-1.0
 21
0.0
 31
0.0
  0
LINE
  5
A5
330
7A
100
AcDbEntity
  8
0
  6
CONTINUOUS
 62
     0
100
AcDbLine
 10
0.0
 20
0.0
 30
0.0
 11
-1.0
 21
0.166666667
 31
0.0
  0
LINE
  5
A6
330
7A
100
AcDbEntity
  8
0
  6
CONTINUOUS
 62
     0
100
AcDbLine
 10
0.0
 20
0.0
 30
0.0
 11
-1.0
 21
-0.166666667
 31
0.0
  0
ENDBLK
  5
7C
330
7A
100
AcDbEntity
  8
0
100
AcDbBlockEnd
  0
BLOCK
  5
7E
330
7D
100
AcDbEntity
  8
0
100
AcDbBlockBegin
  2
EX_BNORM
 70
     0
 10
0.0
 20
0.0
 30
0.0
  3
EX_BNORM
  1
EX_BNORM
  0
LINE
  5
A7
330
7D
100
AcDbEntity
  8
0
  6
CONTINUOUS
 62
     0
100
AcDbLine
 10
0.0
 20
0.0
 30
0.0
 11
-1.0
 21
0.0
 31
0.0
  0
LINE
  5
A8
330
7D
100
AcDbEntity
  8
0
  6
CONTINUOUS
 62
     0
100
AcDbLine
 10
0.0
 20
0.0
 30
0.0
 11
-1.0
 21
0.166666667
 31
0.0
  0
LINE
  5
A9
330
7D
100
AcDbEntity
  8
0
  6
CONTINUOUS
 62
     0
100
AcDbLine
 10
0.0
 20
0.0
 30
0.0
 11
-1.0
 21
-0.166666667
 31
0.0
  0
LINE
  5
AA
330
7D
100
AcDbEntity
  8
0
  6
CONTINUOUS
 62
     0
100
AcDbLine
 10
0.0
 20
0.0
 30
0.0
 11
-1.0
 21
0.083333333
 31
0.0
  0
LINE
  5
AB
330
7D
100
AcDbEntity
  8
0
  6
CONTINUOUS
 62
     0
100
AcDbLine
 10
0.0
 20
0.0
 30
0.0
 11
-1.0
 21
-0.083333333
 31
0.0
  0
LINE
  5
AC
330
7D
100
AcDbEntity
  8
0
  6
CONTINUOUS
 62
     0
100
AcDbLine
 10
-1.0
 20
0.166666667
 30
0.0
 11
-1.0
 21
-0.166666667
 31
0.0
  0
ENDBLK
  5
7F
330
7D
100
AcDbEntity
  8
0
100
AcDbBlockEnd
  0
BLOCK
  5
81
330
80
100
AcDbEntity
  8
0
100
AcDbBlockBegin
  2
EX_BCIR
 70
     0
 10
0.0
 20
0.0
 30
0.0
  3
EX_BCIR
  1
EX_BCIR
  0
LINE
  5
AD
330
80
100
AcDbEntity
  8
0
  6
CONTINUOUS
 62
     0
100
AcDbLine
 10
0.0
 20
0.0
 30
0.0
 11
-1.0
 21
0.0
 31
0.0
  0
CIRCLE
  5
AE
330
80
100
AcDbEntity
  8
0
  6
CONTINUOUS
 62
     0
100
AcDbCircle
 10
0.0
 20
0.0
 30
0.0
 40
0.5
  0
CIRCLE
  5
AF
330
80
100
AcDbEntity
  8
0
  6
CONTINUOUS
 62
     0
100
AcDbCircle
 10
0.0
 20
0.0
 30
0.0
 40
0.25
  0
ENDBLK
  5
82
330
80
100
AcDbEntity
  8
0
100
AcDbBlockEnd
  0
BLOCK
  5
84
330
83
100
AcDbEntity
  8
0
100
AcDbBlockBegin
  2
EX_RCIVIL
 70
     0
 10
0.0
 20
0.0
 30
0.0
  3
EX_RCIVIL
  1
EX_RCIVIL
  0
LINE
  5
B0
330
83
100
AcDbEntity
  8
0
  6
CONTINUOUS
 62
     0
100
AcDbLine
 10
0.0
 20
0.0
 30
0.0
 11
-1.0
 21
0.0
 31
0.0
  0
LINE
  5
B1
330
83
100
AcDbEntity
  8
0
  6
CONTINUOUS
 62
     0
100
AcDbLine
 10
-1.0
 20
-0.25
 30
0.0
 11
0.0
 21
-0.25
 31
0.0
  0
LINE
  5
B2
330
83
100
AcDbEntity
  8
0
  6
CONTINUOUS
 62
     0
100
AcDbLine
 10
-1.0
 20
-0.125
 30
0.0
 11
0.0
 21
-0.125
 31
0.0
  0
ENDBLK
  5
85
330
83
100
AcDbEntity
  8
0
100
AcDbBlockEnd
  0
BLOCK
  5
87
330
86
100
AcDbEntity
  8
0
100
AcDbBlockBegin
  2
EX_SLANT
 70
     0
 10
0.0
 20
0.0
 30
0.0
  3
EX_SLANT
  1
EX_SLANT
  0
LINE
  5
B3
330
86
100
AcDbEntity
  8
0
  6
CONTINUOUS
 62
     0
100
AcDbLine
 10
0.0
 20
0.0
 30
0.0
 11
-1.0
 21
0.0
 31
0.0
  0
LINE
  5
B4
330
86
100
AcDbEntity
  8
0
  6
CONTINUOUS
 62
     0
100
AcDbLine
 10
0.707106781
 20
0.707106781
 30
0.0
 11
-0.707106781
 21
-0.707106781
 31
0.0
  0
ENDBLK
  5
88
330
86
100
AcDbEntity
  8
0
100
AcDbBlockEnd
  0
BLOCK
  5
8A
330
89
100
AcDbEntity
  8
0
100
AcDbBlockBegin
  2
EX_NONE
 70
     0
 10
0.0
 20
0.0
 30
0.0
  3
EX_NONE
  1
EX_NONE
  0
LINE
  5
B5
330
89
100
AcDbEntity
  8
0
  6
CONTINUOUS
 62
     0
100
AcDbLine
 10
0.0
 20
0.0
 30
0.0
 11
-1.0
 21
0.0
 31
0.0
  0
ENDBLK
  5
8B
330
89
100
AcDbEntity
  8
0
100
AcDbBlockEnd
  0
BLOCK
  5
8D
330
8C
100
AcDbEntity
  8
0
100
AcDbBlockBegin
  2
EX_CIVIL
 70
     0
 10
0.0
 20
0.0
 30
0.0
  3
EX_CIVIL
  1
EX_CIVIL
  0
LINE
  5
B6
330
8C
100
AcDbEntity
  8
0
  6
CONTINUOUS
 62
     0
100
AcDbLine
 10
0.0
 20
0.0
 30
0.0
 11
-1.0
 21
0.0
 31
0.0
  0
LINE
  5
B7
330
8C
100
AcDbEntity
  8
0
  6
CONTINUOUS
 62
     0
100
AcDbLine
 10
-1.0
 20
0.25
 30
0.0
 11
0.0
 21
0.25
 31
0.0
  0
LINE
  5
B8
330
8C
100
AcDbEntity
  8
0
  6
CONTINUOUS
 62
     0
100
AcDbLine
 10
-1.0
 20
0.125
 30
0.0
 11
0.0
 21
0.125
 31
0.0
  0
ENDBLK
  5
8E
330
8C
100
AcDbEntity
  8
0
100
AcDbBlockEnd
  0
BLOCK
  5
90
330
8F
100
AcDbEntity
  8
0
100
AcDbBlockBegin
  2
EX_WCIR
 70
     0
 10
0.0
 20
0.0
 30
0.0
  3
EX_WCIR
  1
EX_WCIR
  0
LINE
  5
B9
330
8F
100
AcDbEntity
  8
0
  6
CONTINUOUS
 62
     0
100
AcDbLine
 10
0.0
 20
0.0
 30
0.0
 11
-1.0
 21
0.0
 31
0.0
  0
CIRCLE
  5
BA
330
8F
100
AcDbEntity
  8
0
  6
CONTINUOUS
 62
     0
100
AcDbCircle
 10
0.0
 20
0.0
 30
0.0
 40
0.5
  0
ENDBLK
  5
91
330
8F
100
AcDbEntity
  8
0
100
AcDbBlockEnd
  0
BLOCK
  5
93
330
92
100
AcDbEntity
  8
0
100
AcDbBlockBegin
  2
EX_WCIR2
 70
     0
 10
0.0
 20
0.0
 30
0.0
  3
EX_WCIR2
  1
EX_WCIR2
  0
LINE
  5
BB
330
92
100
AcDbEntity
  8
0
  6
CONTINUOUS
 62
     0
100
AcDbLine
 10
-0.5
 20
0.0
 30
0.0
 11
-1.0
 21
0.0
 31
0.0
  0
CIRCLE
  5
BC
330
92
100
AcDbEntity
  8
0
  6
CONTINUOUS
 62
     0
100
AcDbCircle
 10
0.0
 20
0.0
 30
0.0
 40
0.5
  0
ENDBLK
  5
94
330
92
100
AcDbEntity
  8
0
100
AcDbBlockEnd
  0
BLOCK
  5
96
330
95
100
AcDbEntity
  8
0
100
AcDbBlockBegin
  2
EX_WNORM
 70
     0
 10
0.0
 20
0.0
 30
0.0
  3
EX_WNORM
  1
EX_WNORM
  0
LINE
  5
BD
330
95
100
AcDbEntity
  8
0
  6
CONTINUOUS
 62
     0
100
AcDbLine
 10
-1.0
 20
0.0
 30
0.0
 11
-1.0
 21
0.0
 31
0.0
  0
LINE
  5
BE
330
95
100
AcDbEntity
  8
0
  6
CONTINUOUS
 62
     0
100
AcDbLine
 10
0.0
 20
0.0
 30
0.0
 11
-1.0
 21
0.166666667
 31
0.0
  0
LINE
  5
BF
330
95
100
AcDbEntity
  8
0
  6
CONTINUOUS
 62
     0
100
AcDbLine
 10
0.0
 20
0.0
 30
0.0
 11
-1.0
 21
-0.166666667
 31
0.0
  0
LINE
  5
C0
330
95
100
AcDbEntity
  8
0
  6
CONTINUOUS
 62
     0
100
AcDbLine
 10
-1.0
 20
0.166666667
 30
0.0
 11
-1.0
 21
-0.166666667
 31
0.0
  0
ENDBLK
  5
97
330
95
100
AcDbEntity
  8
0
100
AcDbBlockEnd
  0
BLOCK
  5
99
330
98
100
AcDbEntity
  8
0
100
AcDbBlockBegin
  2
EX_NNORM
 70
     0
 10
0.0
 20
0.0
 30
0.0
  3
EX_NNORM
  1
EX_NNORM
  0
LINE
  5
C1
330
98
100
AcDbEntity
  8
0
  6
CONTINUOUS
 62
     0
100
AcDbLine
 10
0.0
 20
0.0
 30
0.0
 11
-1.0
 21
0.0
 31
0.0
  0
LINE
  5
C2
330
98
100
AcDbEntity
  8
0
  6
CONTINUOUS
 62
     0
100
AcDbLine
 10
0.0
 20
0.0
 30
0.0
 11
-1.0
 21
0.166666667
 31
0.0
  0
LINE
  5
C3
330
98
100
AcDbEntity
  8
0
  6
CONTINUOUS
 62
     0
100
AcDbLine
 10
0.0
 20
0.0
 30
0.0
 11
-1.0
 21
-0.166666667
 31
0.0
  0
LINE
  5
C4
330
98
100
AcDbEntity
  8
0
  6
CONTINUOUS
 62
     0
100
AcDbLine
 10
-1.0
 20
0.166666667
 30
0.0
 11
-1.0
 21
-0.166666667
 31
0.0
  0
ENDBLK
  5
9A
330
98
100
AcDbEntity
  8
0
100
AcDbBlockEnd
  0
BLOCK
  5
9C
330
9B
100
AcDbEntity
  8
0
100
AcDbBlockBegin
  2
EX_BBOX
 70
     0
 10
0.0
 20
0.0
 30
0.0
  3
EX_BBOX
  1
EX_BBOX
  0
LINE
  5
C5
330
9B
100
AcDbEntity
  8
0
  6
CONTINUOUS
 62
     0
100
AcDbLine
 10
0.0
 20
0.0
 30
0.0
 11
-1.0
 21
0.0
 31
0.0
  0
LINE
  5
C6
330
9B
100
AcDbEntity
  8
0
  6
CONTINUOUS
 62
     0
100
AcDbLine
 10
-0.5
 20
0.5
 30
0.0
 11
0.5
 21
0.5
 31
0.0
  0
LINE
  5
C7
330
9B
100
AcDbEntity
  8
0
  6
CONTINUOUS
 62
     0
100
AcDbLine
 10
0.5
 20
0.5
 30
0.0
 11
0.5
 21
-0.5
 31
0.0
  0
LINE
  5
C8
330
9B
100
AcDbEntity
  8
0
  6
CONTINUOUS
 62
     0
100
AcDbLine
 10
0.5
 20
-0.5
 30
0.0
 11
-0.5
 21
-0.5
 31
0.0
  0
LINE
  5
C9
330
9B
100
AcDbEntity
  8
0
  6
CONTINUOUS
 62
     0
100
AcDbLine
 10
-0.5
 20
-0.5
 30
0.0
 11
-0.5
 21
0.5
 31
0.0
  0
LINE
  5
CA
330
9B
100
AcDbEntity
  8
0
  6
CONTINUOUS
 62
     0
100
AcDbLine
 10
-0.25
 20
0.25
 30
0.0
 11
0.25
 21
0.25
 31
0.0
  0
LINE
  5
CB
330
9B
100
AcDbEntity
  8
0
  6
CONTINUOUS
 62
     0
100
AcDbLine
 10
0.25
 20
0.25
 30
0.0
 11
0.25
 21
-0.25
 31
0.0
  0
LINE
  5
CC
330
9B
100
AcDbEntity
  8
0
  6
CONTINUOUS
 62
     0
100
AcDbLine
 10
0.25
 20
-0.25
 30
0.0
 11
-0.25
 21
-0.25
 31
0.0
  0
LINE
  5
CD
330
9B
100
AcDbEntity
  8
0
  6
CONTINUOUS
 62
     0
100
AcDbLine
 10
-0.25
 20
-0.25
 30
0.0
 11
-0.25
 21
0.25
 31
0.0
  0
ENDBLK
  5
9D
330
9B
100
AcDbEntity
  8
0
100
AcDbBlockEnd
  0
BLOCK
  5
9F
330
9E
100
AcDbEntity
  8
0
100
AcDbBlockBegin
  2
EX_WBOX
 70
     0
 10
0.0
 20
0.0
 30
0.0
  3
EX_WBOX
  1
EX_WBOX
  0
LINE
  5
CE
330
9E
100
AcDbEntity
  8
0
  6
CONTINUOUS
 62
     0
100
AcDbLine
 10
-0.5
 20
0.0
 30
0.0
 11
-1.0
 21
0.0
 31
0.0
  0
LINE
  5
CF
330
9E
100
AcDbEntity
  8
0
  6
CONTINUOUS
 62
     0
100
AcDbLine
 10
-0.5
 20
0.5
 30
0.0
 11
0.5
 21
0.5
 31
0.0
  0
LINE
  5
D0
330
9E
100
AcDbEntity
  8
0
  6
CONTINUOUS
 62
     0
100
AcDbLine
 10
0.5
 20
0.5
 30
0.0
 11
0.5
 21
-0.5
 31
0.0
  0
LINE
  5
D1
330
9E
100
AcDbEntity
  8
0
  6
CONTINUOUS
 62
     0
100
AcDbLine
 10
0.5
 20
-0.5
 30
0.0
 11
-0.5
 21
-0.5
 31
0.0
  0
LINE
  5
D2
330
9E
100
AcDbEntity
  8
0
  6
CONTINUOUS
 62
     0
100
AcDbLine
 10
-0.5
 20
-0.5
 30
0.0
 11
-0.5
 21
0.5
 31
0.0
  0
ENDBLK
  5
A0
330
9E
100
AcDbEntity
  8
0
100
AcDbBlockEnd
  0
BLOCK
  5
A2
330
A1
100
AcDbEntity
  8
0
100
AcDbBlockBegin
  2
EX_INTEGRAL
 70
     0
 10
0.0
 20
0.0
 30
0.0
  3
EX_INTEGRAL
  1
EX_INTEGRAL
  0
LINE
  5
D3
330
A1
100
AcDbEntity
  8
0
  6
CONTINUOUS
 62
     0
100
AcDbLine
 10
0.0
 20
0.0
 30
0.0
 11
-1.0
 21
0.0
 31
0.0
  0
ARC
  5
D4
330
A1
100
AcDbEntity
  8
0
  6
CONTINUOUS
 62
     0
100
AcDbCircle
 10
0.542115
 20
0.164992
 30
0.0
 40
0.56667
100
AcDbArc
 50
73.07249033629006
 51
196.9275130221199
  0
ARC
  5
D5
330
A1
100
AcDbEntity
  8
0
  6
CONTINUOUS
 62
     0
100
AcDbCircle
 10
-0.542115
 20
-0.164992
 30
0.0
 40
0.56667
100
AcDbArc
 50
253.0724869220464
 51
16.9275130559125
  0
ENDBLK
  5
A3
330
A1
100
AcDbEntity
  8
0
100
AcDbBlockEnd
  0
ENDSEC
  0
SECTION
  2
ENTITIES
  0
ARC
  5
D6
330
1F
100
AcDbEntity
  8
LAY-1
  6
CONTINUOUS
 62
     3
100
AcDbCircle
 10
138.0419601084502
 20
122.0
 30
0.0
 40
2.0
100
AcDbArc
 50
270.0000000000002
 51
350.4059317731404
  0
ARC
  5
D7
330
1F
100
AcDbEntity
  8
LAY-1
  6
CONTINUOUS
 62
     3
100
AcDbCircle
 10
138.0419601084502
 20
100.0
 30
0.0
 40
2.0
100
AcDbArc
 50
9.594068226859697
 51
90.00000000000001
  0
ARC
  5
D8
330
1F
100
AcDbEntity
  8
LAY-1
  6
CONTINUOUS
 62
     3
100
AcDbCircle
 10
97.9580398915499
 20
122.0
 30
0.0
 40
2.0
100
AcDbArc
 50
189.5940682268633
 51
270.0000000000002
  0
LINE
  5
D9
330
1F
100
AcDbEntity
  8
LAY-1
  6
CONTINUOUS
 62
     3
100
AcDbLine
 10
97.95803989154996
 20
120.0
 30
0.0
 11
138.0419601084502
 21
120.0
 31
0.0
  0
LINE
  5
DA
330
1F
100
AcDbEntity
  8
LAY-1
  6
CONTINUOUS
 62
     3
100
AcDbLine
 10
116.4350288425447
 20
77.76598128423254
 30
0.0
 11
116.6465533403494
 21
77.97750578203721
 31
0.0
  0
ARC
  5
DB
330
1F
100
AcDbEntity
  8
LAY-1
  6
CONTINUOUS
 62
     3
100
AcDbCircle
 10
115.9394465591629
 20
78.68461256322377
 30
0.0
 40
1.0
100
AcDbArc
 50
315.0000000000002
 51
53.44689407144485
  0
LINE
  5
DC
330
1F
100
AcDbEntity
  8
LAY-1
  6
CONTINUOUS
 62
     3
100
AcDbLine
 10
136.2340187157674
 20
97.56497115745523
 30
0.0
 11
136.0224942179628
 21
97.35344665965056
 31
0.0
  0
ARC
  5
DD
330
1F
100
AcDbEntity
  8
LAY-1
  6
CONTINUOUS
 62
     3
100
AcDbCircle
 10
135.3153874367762
 20
98.06055344083711
 30
0.0
 40
1.0
100
AcDbArc
 50
216.5531059285526
 51
315.0000000000002
  0
ARC
  5
DE
330
1F
100
AcDbEntity
  8
LAY-1
  6
CONTINUOUS
 62
     3
100
AcDbCircle
 10
64.22287811830324
 20
45.35282043321448
 30
0.0
 40
87.5
100
AcDbArc
 50
36.5531059285526
 51
37.63167046999611
  0
LINE
  5
DF
330
1F
100
AcDbEntity
  8
LAY-1
  6
CONTINUOUS
 62
     3
100
AcDbLine
 10
138.0419601084502
 20
102.0
 30
0.0
 11
135.1026055824767
 21
102.0000000000001
 31
0.0
  0
ARC
  5
E0
330
1F
100
AcDbEntity
  8
LAY-1
  6
CONTINUOUS
 62
     3
100
AcDbCircle
 10
135.1026055824767
 20
100.0000000000001
 30
0.0
 40
2.0
100
AcDbArc
 50
90.00000000000001
 51
217.631670469997
  0
ARC
  5
E1
330
1F
100
AcDbEntity
  8
LAY-1
  6
CONTINUOUS
 62
     3
100
AcDbCircle
 10
168.6471795667855
 20
149.7771218816968
 30
0.0
 40
87.5
100
AcDbArc
 50
215.6301432230293
 51
233.4468940714471
  0
LINE
  5
E2
330
1F
100
AcDbEntity
  8
LAY-1
  6
CONTINUOUS
 62
     3
100
AcDbLine
 10
133.4055915910216
 20
80.59440840897844
 30
0.0
 11
143.3050865276332
 21
90.49390334559013
 31
0.0
  0
LINE
  5
E3
330
1F
100
AcDbEntity
  8
LAY-1
  6
CONTINUOUS
 62
     3
100
AcDbLine
 10
123.5060966544102
 20
70.69491347236709
 30
0.0
 11
116.4350288425447
 21
77.76598128423257
 31
0.0
  0
LINE
  5
E4
330
1F
100
AcDbEntity
  8
LAY-1
  6
CONTINUOUS
 62
     3
100
AcDbLine
 10
133.4055915910216
 20
80.59440840897847
 30
0.0
 11
123.5060966544099
 21
70.6949134723668
 31
0.0
  0
LINE
  5
E5
330
1F
100
AcDbEntity
  8
LAY-1
  6
CONTINUOUS
 62
     3
100
AcDbLine
 10
83.0
 20
122.5
 30
0.0
 11
83.0
 21
111.0
 31
0.0
  0
LINE
  5
E6
330
1F
100
AcDbEntity
  8
LAY-1
  6
CONTINUOUS
 62
     3
100
AcDbLine
 10
83.0
 20
99.5
 30
0.0
 11
83.0
 21
111.0
 31
0.0
  0
LINE
  5
E7
330
1F
100
AcDbEntity
  8
LAY-1
  6
CONTINUOUS
 62
     3
100
AcDbLine
 10
95.98601329718304
 20
122.5
 30
0.0
 11
95.98601329718304
 21
99.5
 31
0.0
  0
LINE
  5
E8
330
1F
100
AcDbEntity
  8
LAY-1
  6
CONTINUOUS
 62
     3
100
AcDbLine
 10
82.99999999999949
 20
122.5000000000003
 30
0.0
 11
84.02713857098445
 21
124.27905619136
 31
0.0
  0
LINE
  5
E9
330
1F
100
AcDbEntity
  8
LAY-1
  6
CONTINUOUS
 62
     3
100
AcDbLine
 10
95.98601329718275
 20
122.4999999999998
 30
0.0
 11
94.95887472619745
 21
124.27905619136
 31
0.0
  0
LINE
  5
EA
330
1F
100
AcDbEntity
  8
LAY-1
  6
CONTINUOUS
 62
     3
100
AcDbLine
 10
84.027138570984
 20
117.63952809568
 30
0.0
 11
94.958874726197
 21
117.63952809568
 31
0.0
  0
ARC
  5
EB
330
1F
100
AcDbEntity
  8
LAY-1
  6
CONTINUOUS
 62
     3
100
AcDbCircle
 10
90.1076209758109
 20
120.95929214352
 30
0.0
 40
5.878392321372092
100
AcDbArc
 50
325.6157525319543
 51
25.61575253200595
  0
ARC
  5
EC
330
1F
100
AcDbEntity
  8
LAY-1
  6
CONTINUOUS
 62
     3
100
AcDbCircle
 10
88.87839232138151
 20
120.95929214352
 30
0.0
 40
5.878392321381488
100
AcDbArc
 50
154.3842474680349
 51
214.3842474679831
  0
LINE
  5
ED
330
1F
100
AcDbEntity
  8
LAY-1
  6
CONTINUOUS
 62
     3
100
AcDbLine
 10
84.027138570984
 20
124.27905619136
 30
0.0
 11
94.95887472619745
 21
124.27905619136
 31
0.0
  0
LINE
  5
EE
330
1F
100
AcDbEntity
  8
LAY-1
  6
CONTINUOUS
 62
     3
100
AcDbLine
 10
84.027138570984
 20
104.36047190432
 30
0.0
 11
94.958874726197
 21
104.36047190432
 31
0.0
  0
ARC
  5
EF
330
1F
100
AcDbEntity
  8
LAY-1
  6
CONTINUOUS
 62
     3
100
AcDbCircle
 10
88.87839232138151
 20
101.04070785648
 30
0.0
 40
5.878392321381488
100
AcDbArc
 50
145.6157525320171
 51
205.6157525319652
  0
ARC
  5
F0
330
1F
100
AcDbEntity
  8
LAY-1
  6
CONTINUOUS
 62
     3
100
AcDbCircle
 10
90.1076209758109
 20
101.04070785648
 30
0.0
 40
5.878392321372092
100
AcDbArc
 50
334.3842474679943
 51
34.38424746804563
  0
LINE
  5
F1
330
1F
100
AcDbEntity
  8
LAY-1
  6
CONTINUOUS
 62
     3
100
AcDbLine
 10
95.98601329718275
 20
99.50000000000017
 30
0.0
 11
94.95887472619745
 21
97.72094380863999
 31
0.0
  0
LINE
  5
F2
330
1F
100
AcDbEntity
  8
LAY-1
  6
CONTINUOUS
 62
     3
100
AcDbLine
 10
82.99999999999949
 20
99.49999999999969
 30
0.0
 11
84.02713857098445
 21
97.72094380863999
 31
0.0
  0
LINE
  5
F3
330
1F
100
AcDbEntity
  8
LAY-1
  6
CONTINUOUS
 62
     3
100
AcDbLine
 10
84.02713857098445
 20
97.72094380863999
 30
0.0
 11
94.95887472619745
 21
97.72094380863999
 31
0.0
  0
ARC
  5
F4
330
1F
100
AcDbEntity
  8
LAY-1
  6
CONTINUOUS
 62
     3
100
AcDbCircle
 10
104.9728614290499
 20
111.0
 30
0.0
 40
21.97286142904988
100
AcDbArc
 50
162.4120462260378
 51
197.5879537739622
  0
ARC
  5
F5
330
1F
100
AcDbEntity
  8
LAY-1
  6
CONTINUOUS
 62
     3
100
AcDbCircle
 10
74.01315186817368
 20
111.0
 30
0.0
 40
21.97286142900931
100
AcDbArc
 50
342.4120462260043
 51
17.58795377399578
  0
ARC
  5
F6
330
1F
100
AcDbEntity
  8
LAY-1
  6
CONTINUOUS
 62
     3
100
AcDbCircle
 10
95.9020812571319
 20
97.63883775267283
 30
0.0
 40
2.0
100
AcDbArc
 50
35.63014322302944
 51
87.59481783714979
  0
LINE
  5
F7
330
1F
100
AcDbEntity
  8
LAY-1
  6
CONTINUOUS
 62
     3
100
AcDbLine
 10
140.013986702817
 20
122.5
 30
0.0
 11
140.013986702817
 21
99.5
 31
0.0
  0
LINE
  5
F8
330
1F
100
AcDbEntity
  8
LAY-1
  6
CONTINUOUS
 62
     3
100
AcDbLine
 10
153.0
 20
122.5
 30
0.0
 11
153.0
 21
111.0
 31
0.0
  0
LINE
  5
F9
330
1F
100
AcDbEntity
  8
LAY-1
  6
CONTINUOUS
 62
     3
100
AcDbLine
 10
153.0
 20
99.5
 30
0.0
 11
153.0
 21
111.0
 31
0.0
  0
LINE
  5
FA
330
1F
100
AcDbEntity
  8
LAY-1
  6
CONTINUOUS
 62
     3
100
AcDbLine
 10
153.0000000000005
 20
122.5000000000003
 30
0.0
 11
151.9728614290156
 21
124.27905619136
 31
0.0
  0
ARC
  5
FB
330
1F
100
AcDbEntity
  8
LAY-1
  6
CONTINUOUS
 62
     3
100
AcDbCircle
 10
147.1216076786185
 20
120.95929214352
 30
0.0
 40
5.878392321381488
100
AcDbArc
 50
325.6157525320173
 51
25.61575253196516
  0
ARC
  5
FC
330
1F
100
AcDbEntity
  8
LAY-1
  6
CONTINUOUS
 62
     3
100
AcDbCircle
 10
147.1216076786185
 20
101.04070785648
 30
0.0
 40
5.878392321381488
100
AcDbArc
 50
334.3842474680349
 51
34.384247467983
  0
LINE
  5
FD
330
1F
100
AcDbEntity
  8
LAY-1
  6
CONTINUOUS
 62
     3
100
AcDbLine
 10
153.0000000000005
 20
99.49999999999969
 30
0.0
 11
151.9728614290156
 21
97.72094380863999
 31
0.0
  0
ARC
  5
FE
330
1F
100
AcDbEntity
  8
LAY-1
  6
CONTINUOUS
 62
     3
100
AcDbCircle
 10
131.0271385709501
 20
111.0
 30
0.0
 40
21.97286142904988
100
AcDbArc
 50
342.4120462260379
 51
17.58795377396221
  0
LINE
  5
FF
330
1F
100
AcDbEntity
  8
LAY-1
  6
CONTINUOUS
 62
     3
100
AcDbLine
 10
151.972861429016
 20
124.27905619136
 30
0.0
 11
141.0411252738025
 21
124.27905619136
 31
0.0
  0
LINE
  5
100
330
1F
100
AcDbEntity
  8
LAY-1
  6
CONTINUOUS
 62
     3
100
AcDbLine
 10
151.972861429016
 20
117.63952809568
 30
0.0
 11
141.041125273803
 21
117.63952809568
 31
0.0
  0
LINE
  5
101
330
1F
100
AcDbEntity
  8
LAY-1
  6
CONTINUOUS
 62
     3
100
AcDbLine
 10
151.972861429016
 20
104.36047190432
 30
0.0
 11
141.041125273803
 21
104.36047190432
 31
0.0
  0
LINE
  5
102
330
1F
100
AcDbEntity
  8
LAY-1
  6
CONTINUOUS
 62
     3
100
AcDbLine
 10
151.9728614290156
 20
97.72094380863999
 30
0.0
 11
141.0411252738025
 21
97.72094380863999
 31
0.0
  0
ARC
  5
103
330
1F
100
AcDbEntity
  8
LAY-1
  6
CONTINUOUS
 62
     3
100
AcDbCircle
 10
161.9868481318263
 20
111.0
 30
0.0
 40
21.97286142900931
100
AcDbArc
 50
162.4120462260043
 51
197.5879537739958
  0
ARC
  5
104
330
1F
100
AcDbEntity
  8
LAY-1
  6
CONTINUOUS
 62
     3
100
AcDbCircle
 10
145.8923790241891
 20
101.04070785648
 30
0.0
 40
5.878392321372092
100
AcDbArc
 50
145.6157525319545
 51
205.615752532006
  0
ARC
  5
105
330
1F
100
AcDbEntity
  8
LAY-1
  6
CONTINUOUS
 62
     3
100
AcDbCircle
 10
145.8923790241891
 20
120.95929214352
 30
0.0
 40
5.878392321372092
100
AcDbArc
 50
154.3842474679941
 51
214.3842474680457
  0
LINE
  5
106
330
1F
100
AcDbEntity
  8
LAY-1
  6
CONTINUOUS
 62
     3
100
AcDbLine
 10
140.0139867028173
 20
122.4999999999998
 30
0.0
 11
141.0411252738025
 21
124.27905619136
 31
0.0
  0
LINE
  5
107
330
1F
100
AcDbEntity
  8
LAY-1
  6
CONTINUOUS
 62
     3
100
AcDbLine
 10
140.0139867028173
 20
99.50000000000017
 30
0.0
 11
141.0411252738025
 21
97.72094380863999
 31
0.0
  0
LINE
  5
108
330
1F
100
AcDbEntity
  8
LAY-1
  6
CONTINUOUS
 62
     3
100
AcDbLine
 10
95.98601329718304
 20
122.0
 30
0.0
 11
140.013986702817
 21
122.0
 31
0.0
  0
POLYLINE
  5
109
330
1F
100
AcDbEntity
  8
LAY-1
  6
CONTINUOUS
 62
     3
100
AcDb2dPolyline
 66
     1
 10
0.0
 20
0.0
 30
0.0
 70
   128
  0
VERTEX
  5
10A
330
109
100
AcDbEntity
  8
LAY-1
  6
CONTINUOUS
 62
     3
100
AcDbVertex
100
AcDb2dVertex
 10
96.69999999999999
 20
100.2
 30
0.0
  0
VERTEX
  5
10B
330
109
100
AcDbEntity
  8
LAY-1
  6
CONTINUOUS
 62
     3
100
AcDbVertex
100
AcDb2dVertex
 10
96.70811359869893
 20
100.2619348446519
 30
0.0
  0
VERTEX
  5
10C
330
109
100
AcDbEntity
  8
LAY-1
  6
CONTINUOUS
 62
     3
100
AcDbVertex
100
AcDb2dVertex
 10
96.73185358341534
 20
100.438172052317
 30
0.0
  0
VERTEX
  5
10D
330
109
100
AcDbEntity
  8
LAY-1
  6
CONTINUOUS
 62
     3
100
AcDbVertex
100
AcDb2dVertex
 10
96.77031873707871
 20
100.7143606335596
 30
0.0
  0
VERTEX
  5
10E
330
109
100
AcDbEntity
  8
LAY-1
  6
CONTINUOUS
 62
     3
100
AcDbVertex
100
AcDb2dVertex
 10
96.82260784261828
 20
101.076149598944
 30
0.0
  0
VERTEX
  5
10F
330
109
100
AcDbEntity
  8
LAY-1
  6
CONTINUOUS
 62
     3
100
AcDbVertex
100
AcDb2dVertex
 10
96.88781968296354
 20
101.5091879590343
 30
0.0
  0
VERTEX
  5
110
330
109
100
AcDbEntity
  8
LAY-1
  6
CONTINUOUS
 62
     3
100
AcDbVertex
100
AcDb2dVertex
 10
96.96505304104386
 20
101.9991247243949
 30
0.0
  0
VERTEX
  5
111
330
109
100
AcDbEntity
  8
LAY-1
  6
CONTINUOUS
 62
     3
100
AcDbVertex
100
AcDb2dVertex
 10
97.05340669978864
 20
102.53160890559
 30
0.0
  0
VERTEX
  5
112
330
109
100
AcDbEntity
  8
LAY-1
  6
CONTINUOUS
 62
     3
100
AcDbVertex
100
AcDb2dVertex
 10
97.15197944212724
 20
103.0922895131838
 30
0.0
  0
VERTEX
  5
113
330
109
100
AcDbEntity
  8
LAY-1
  6
CONTINUOUS
 62
     3
100
AcDbVertex
100
AcDb2dVertex
 10
97.25987005098908
 20
103.6668155577406
 30
0.0
  0
VERTEX
  5
114
330
109
100
AcDbEntity
  8
LAY-1
  6
CONTINUOUS
 62
     3
100
AcDbVertex
100
AcDb2dVertex
 10
97.37617730930354
 20
104.2408360498246
 30
0.0
  0
VERTEX
  5
115
330
109
100
AcDbEntity
  8
LAY-1
  6
CONTINUOUS
 62
     3
100
AcDbVertex
100
AcDb2dVertex
 10
97.50000000000003
 20
104.8
 30
0.0
  0
VERTEX
  5
116
330
109
100
AcDbEntity
  8
LAY-1
  6
CONTINUOUS
 62
     3
100
AcDbVertex
100
AcDb2dVertex
 10
97.65476903969369
 20
105.4243274199616
 30
0.0
  0
VERTEX
  5
117
330
109
100
AcDbEntity
  8
LAY-1
  6
CONTINUOUS
 62
     3
100
AcDbVertex
100
AcDb2dVertex
 10
97.82004902599073
 20
106.0093045483143
 30
0.0
  0
VERTEX
  5
118
330
109
100
AcDbEntity
  8
LAY-1
  6
CONTINUOUS
 62
     3
100
AcDbVertex
100
AcDb2dVertex
 10
97.99716988919528
 20
106.5561232906274
 30
0.0
  0
VERTEX
  5
119
330
109
100
AcDbEntity
  8
LAY-1
  6
CONTINUOUS
 62
     3
100
AcDbVertex
100
AcDb2dVertex
 10
98.18746155961148
 20
107.0659755524699
 30
0.0
  0
VERTEX
  5
11A
330
109
100
AcDbEntity
  8
LAY-1
  6
CONTINUOUS
 62
     3
100
AcDbVertex
100
AcDb2dVertex
 10
98.39225396754354
 20
107.5400532394111
 30
0.0
  0
VERTEX
  5
11B
330
109
100
AcDbEntity
  8
LAY-1
  6
CONTINUOUS
 62
     3
100
AcDbVertex
100
AcDb2dVertex
 10
98.61287704329553
 20
107.97954825702
 30
0.0
  0
VERTEX
  5
11C
330
109
100
AcDbEntity
  8
LAY-1
  6
CONTINUOUS
 62
     3
100
AcDbVertex
100
AcDb2dVertex
 10
98.85066071717164
 20
108.3856525108658
 30
0.0
  0
VERTEX
  5
11D
330
109
100
AcDbEntity
  8
LAY-1
  6
CONTINUOUS
 62
     3
100
AcDbVertex
100
AcDb2dVertex
 10
99.106934919476
 20
108.7595579065176
 30
0.0
  0
VERTEX
  5
11E
330
109
100
AcDbEntity
  8
LAY-1
  6
CONTINUOUS
 62
     3
100
AcDbVertex
100
AcDb2dVertex
 10
99.38302958051274
 20
109.1024563495444
 30
0.0
  0
VERTEX
  5
11F
330
109
100
AcDbEntity
  8
LAY-1
  6
CONTINUOUS
 62
     3
100
AcDbVertex
100
AcDb2dVertex
 10
99.68027463058601
 20
109.4155397455155
 30
0.0
  0
VERTEX
  5
120
330
109
100
AcDbEntity
  8
LAY-1
  6
CONTINUOUS
 62
     3
100
AcDbVertex
100
AcDb2dVertex
 10
100.0
 20
109.7
 30
0.0
  0
VERTEX
  5
121
330
109
100
AcDbEntity
  8
LAY-1
  6
CONTINUOUS
 62
     3
100
AcDbVertex
100
AcDb2dVertex
 10
102.4043776924976
 20
110.8595995693023
 30
0.0
  0
VERTEX
  5
122
330
109
100
AcDbEntity
  8
LAY-1
  6
CONTINUOUS
 62
     3
100
AcDbVertex
100
AcDb2dVertex
 10
105.4864637626725
 20
111.1732951039226
 30
0.0
  0
VERTEX
  5
123
330
109
100
AcDbEntity
  8
LAY-1
  6
CONTINUOUS
 62
     3
100
AcDbVertex
100
AcDb2dVertex
 10
109.0552150869507
 20
110.7960510077711
 30
0.0
  0
VERTEX
  5
124
330
109
100
AcDbEntity
  8
LAY-1
  6
CONTINUOUS
 62
     3
100
AcDbVertex
100
AcDb2dVertex
 10
112.919588541758
 20
109.8828316847581
 30
0.0
  0
VERTEX
  5
125
330
109
100
AcDbEntity
  8
LAY-1
  6
CONTINUOUS
 62
     3
100
AcDbVertex
100
AcDb2dVertex
 10
116.8885410035204
 20
108.5886015387937
 30
0.0
  0
VERTEX
  5
126
330
109
100
AcDbEntity
  8
LAY-1
  6
CONTINUOUS
 62
     3
100
AcDbVertex
100
AcDb2dVertex
 10
120.7710293486637
 20
107.0683249737881
 30
0.0
  0
VERTEX
  5
127
330
109
100
AcDbEntity
  8
LAY-1
  6
CONTINUOUS
 62
     3
100
AcDbVertex
100
AcDb2dVertex
 10
124.3760104536138
 20
105.4769663936516
 30
0.0
  0
VERTEX
  5
128
330
109
100
AcDbEntity
  8
LAY-1
  6
CONTINUOUS
 62
     3
100
AcDbVertex
100
AcDb2dVertex
 10
127.5124411947966
 20
103.9694902022944
 30
0.0
  0
VERTEX
  5
129
330
109
100
AcDbEntity
  8
LAY-1
  6
CONTINUOUS
 62
     3
100
AcDbVertex
100
AcDb2dVertex
 10
129.9892784486379
 20
102.7008608036265
 30
0.0
  0
VERTEX
  5
12A
330
109
100
AcDbEntity
  8
LAY-1
  6
CONTINUOUS
 62
     3
100
AcDbVertex
100
AcDb2dVertex
 10
131.6154790915638
 20
101.8260426015583
 30
0.0
  0
VERTEX
  5
12B
330
109
100
AcDbEntity
  8
LAY-1
  6
CONTINUOUS
 62
     3
100
AcDbVertex
100
AcDb2dVertex
 10
132.2
 20
101.5
 30
0.0
  0
SEQEND
  5
12C
330
109
100
AcDbEntity
  8
LAY-1
  6
CONTINUOUS
 62
     3
  0
LINE
  5
12D
330
1F
100
AcDbEntity
  8
LAY-1
  6
CONTINUOUS
 62
     3
100
AcDbLine
 10
116.43502884254
 20
77.76598128423001
 30
0.0
 11
136.234018715765
 21
97.56497115745503
 31
0.0
  0
LINE
  5
12E
330
1F
100
AcDbEntity
  8
LAY-1
  6
CONTINUOUS
 62
     3
100
AcDbLine
 10
143.3050865276329
 20
90.49390334558981
 30
0.0
 11
136.2340187157663
 21
97.56497115745628
 31
0.0
  0
ARC
  5
12F
330
1F
100
AcDbEntity
  8
LAY-1
  6
CONTINUOUS
 62
     3
100
AcDbCircle
 10
138.7254093212551
 20
97.35767221655522
 30
0.0
 40
2.5
100
AcDbArc
 50
58.97373518999177
 51
175.2435970142636
  0
LINE
  5
130
330
1F
100
AcDbEntity
  8
LAY-1
  6
CONTINUOUS
 62
     3
100
AcDbLine
 10
142.4212030511484
 20
89.61001986910652
 30
0.0
 11
144.8960767853013
 21
87.13514613495359
 31
0.0
  0
LINE
  5
131
330
1F
100
AcDbEntity
  8
LAY-1
  6
CONTINUOUS
 62
     3
100
AcDbLine
 10
144.8960767853014
 20
87.13514613495347
 30
0.0
 11
143.5277930442447
 21
84.35264883152365
 31
0.0
  0
LINE
  5
132
330
1F
100
AcDbEntity
  8
LAY-1
  6
CONTINUOUS
 62
     3
100
AcDbLine
 10
147.5477272147506
 20
78.47308806541834
 30
0.0
 11
147.9407125547696
 21
79.93972932099877
 31
0.0
  0
LINE
  5
133
330
1F
100
AcDbEntity
  8
LAY-1
  6
CONTINUOUS
 62
     3
100
AcDbLine
 10
147.547727214751
 20
78.47308806541827
 30
0.0
 11
141.5373195746654
 21
72.46268042533262
 31
0.0
  0
LINE
  5
134
330
1F
100
AcDbEntity
  8
LAY-1
  6
CONTINUOUS
 62
     3
100
AcDbLine
 10
143.5277930442447
 20
84.35264883152365
 30
0.0
 11
147.9407125547696
 21
79.93972932099877
 31
0.0
  0
LINE
  5
135
330
1F
100
AcDbEntity
  8
LAY-1
  6
CONTINUOUS
 62
     3
100
AcDbLine
 10
133.40559159102
 20
80.59440840897804
 30
0.0
 11
142.4212030511484
 21
89.61001986910652
 31
0.0
  0
LINE
  5
136
330
1F
100
AcDbEntity
  8
LAY-1
  6
CONTINUOUS
 62
     3
100
AcDbLine
 10
144.8960767853014
 20
87.13514613495356
 30
0.0
 11
135.8804653251729
 21
78.11953467482508
 31
0.0
  0
LINE
  5
137
330
1F
100
AcDbEntity
  8
LAY-1
  6
CONTINUOUS
 62
     3
100
AcDbLine
 10
143.5277930442447
 20
84.35264883152377
 30
0.0
 11
136.5875721063595
 21
77.41242789363854
 31
0.0
  0
LINE
  5
138
330
1F
100
AcDbEntity
  8
LAY-1
  6
CONTINUOUS
 62
     3
100
AcDbLine
 10
144.4706020858272
 20
76.4696188520567
 30
0.0
 11
140.0576825753024
 21
80.8825383625815
 31
0.0
  0
ARC
  5
139
330
1F
100
AcDbEntity
  8
LAY-1
  6
CONTINUOUS
 62
     3
100
AcDbCircle
 10
130.0533322522762
 20
83.94666774772182
 30
0.0
 40
16.24081062144336
100
AcDbArc
 50
315.0000000000001
 51
332.5879537739964
  0
ARC
  5
13A
330
1F
100
AcDbEntity
  8
LAY-1
  6
CONTINUOUS
 62
     3
100
AcDbCircle
 10
143.6701779633154
 20
80.74015344351082
 30
0.0
 40
4.344898672317342
100
AcDbArc
 50
280.6157525319464
 51
340.6157525319782
  0
LINE
  5
13B
330
1F
100
AcDbEntity
  8
LAY-1
  6
CONTINUOUS
 62
     3
100
AcDbLine
 10
124.3899801308931
 20
71.5787969488513
 30
0.0
 11
126.864853865046
 21
69.1039232146984
 31
0.0
  0
LINE
  5
13C
330
1F
100
AcDbEntity
  8
LAY-1
  6
CONTINUOUS
 62
     3
100
AcDbLine
 10
126.8648538650461
 20
69.10392321469828
 30
0.0
 11
129.6473511684759
 21
70.47220695575497
 31
0.0
  0
LINE
  5
13D
330
1F
100
AcDbEntity
  8
LAY-1
  6
CONTINUOUS
 62
     3
100
AcDbLine
 10
135.5269119345812
 20
66.45227278524901
 30
0.0
 11
134.0602706790008
 21
66.05928744523004
 31
0.0
  0
LINE
  5
13E
330
1F
100
AcDbEntity
  8
LAY-1
  6
CONTINUOUS
 62
     3
100
AcDbLine
 10
135.5269119345813
 20
66.45227278524864
 30
0.0
 11
141.537319574667
 21
72.46268042533423
 31
0.0
  0
LINE
  5
13F
330
1F
100
AcDbEntity
  8
LAY-1
  6
CONTINUOUS
 62
     3
100
AcDbLine
 10
129.6473511684759
 20
70.47220695575497
 30
0.0
 11
134.0602706790008
 21
66.05928744523004
 31
0.0
  0
LINE
  5
140
330
1F
100
AcDbEntity
  8
LAY-1
  6
CONTINUOUS
 62
     3
100
AcDbLine
 10
133.4055915910216
 20
80.59440840897969
 30
0.0
 11
124.3899801308931
 21
71.5787969488513
 31
0.0
  0
LINE
  5
141
330
1F
100
AcDbEntity
  8
LAY-1
  6
CONTINUOUS
 62
     3
100
AcDbLine
 10
126.864853865046
 20
69.10392321469831
 30
0.0
 11
135.8804653251746
 21
78.11953467482672
 31
0.0
  0
LINE
  5
142
330
1F
100
AcDbEntity
  8
LAY-1
  6
CONTINUOUS
 62
     3
100
AcDbLine
 10
129.6473511684758
 20
70.47220695575503
 30
0.0
 11
136.5875721063611
 21
77.41242789364017
 31
0.0
  0
LINE
  5
143
330
1F
100
AcDbEntity
  8
LAY-1
  6
CONTINUOUS
 62
     3
100
AcDbLine
 10
137.5303811479429
 20
69.52939791417242
 30
0.0
 11
133.1174616374181
 21
73.94231742469725
 31
0.0
  0
ARC
  5
144
330
1F
100
AcDbEntity
  8
LAY-1
  6
CONTINUOUS
 62
     3
100
AcDbCircle
 10
130.0533322522779
 20
83.9466677477235
 30
0.0
 40
16.24081062144336
100
AcDbArc
 50
297.4120462260033
 51
314.9999999999995
  0
ARC
  5
145
330
1F
100
AcDbEntity
  8
LAY-1
  6
CONTINUOUS
 62
     3
100
AcDbCircle
 10
133.2598465564888
 20
70.3298220366843
 30
0.0
 40
4.344898672317342
100
AcDbArc
 50
289.3842474680211
 51
349.3842474680529
  0
LINE
  5
146
330
1F
100
AcDbEntity
  8
LAY-1
  6
EXLTYPE3
 62
     1
100
AcDbLine
 10
79.0
 20
110.9999999999998
 30
0.0
 11
157.0
 21
110.9999999999998
 31
0.0
  0
LINE
  5
147
330
1F
100
AcDbEntity
  8
LAY-1
  6
EXLTYPE3
 62
     1
100
AcDbLine
 10
102.9999999999998
 20
111.0000000000002
 30
0.0
 11
145.0999999999998
 21
68.89999999999979
 31
0.0
  0
LINE
  5
148
330
1F
100
AcDbEntity
  8
LAY-1
  6
CONTINUOUS
 62
     3
100
AcDbLine
 10
153.0
 20
159.0000000000001
 30
0.0
 11
153.0
 21
170.5000000000001
 31
0.0
  0
LINE
  5
149
330
1F
100
AcDbEntity
  8
LAY-1
  6
CONTINUOUS
 62
     3
100
AcDbLine
 10
140.01398670282
 20
159.0000000000001
 30
0.0
 11
140.01398670282
 21
170.5
 31
0.0
  0
LINE
  5
14A
330
1F
100
AcDbEntity
  8
LAY-1
  6
CONTINUOUS
 62
     3
100
AcDbLine
 10
83.0
 20
159.0
 30
0.0
 11
83.0
 21
170.5
 31
0.0
  0
LINE
  5
14B
330
1F
100
AcDbEntity
  8
LAY-1
  6
CONTINUOUS
 62
     3
100
AcDbLine
 10
95.98601329718304
 20
159.0
 30
0.0
 11
95.98601329718304
 21
170.5
 31
0.0
  0
LINE
  5
14C
330
1F
100
AcDbEntity
  8
LAY-1
  6
CONTINUOUS
 62
     3
100
AcDbLine
 10
95.986013297183
 20
170.5
 30
0.0
 11
83.0
 21
170.5
 31
0.0
  0
LINE
  5
14D
330
1F
100
AcDbEntity
  8
LAY-1
  6
CONTINUOUS
 62
     3
100
AcDbLine
 10
140.01398670282
 20
170.5
 30
0.0
 11
153.0
 21
170.5
 31
0.0
  0
ARC
  5
14E
330
1F
100
AcDbEntity
  8
LAY-1
  6
CONTINUOUS
 62
     3
100
AcDbCircle
 10
136.3919616067754
 20
164.75
 30
0.0
 40
16.60803839322457
100
AcDbArc
 50
339.7438419996993
 51
20.25615800030077
  0
ARC
  5
14F
330
1F
100
AcDbEntity
  8
LAY-1
  6
CONTINUOUS
 62
     3
100
AcDbCircle
 10
156.6220250960446
 20
164.75
 30
0.0
 40
16.60803839322457
100
AcDbArc
 50
159.7438419996993
 51
200.2561580003008
  0
ARC
  5
150
330
1F
100
AcDbEntity
  8
LAY-1
  6
CONTINUOUS
 62
     3
100
AcDbCircle
 10
79.37797490395843
 20
164.75
 30
0.0
 40
16.60803839322457
100
AcDbArc
 50
339.7438419996993
 51
20.25615800030077
  0
ARC
  5
151
330
1F
100
AcDbEntity
  8
LAY-1
  6
CONTINUOUS
 62
     3
100
AcDbCircle
 10
99.60803839322762
 20
164.75
 30
0.0
 40
16.60803839322457
100
AcDbArc
 50
159.7438419996993
 51
200.2561580003008
  0
LINE
  5
152
330
1F
100
AcDbEntity
  8
LAY-1
  6
CONTINUOUS
 62
     3
100
AcDbLine
 10
153.0
 20
159.0000000000001
 30
0.0
 11
153.0
 21
147.5000000000001
 31
0.0
  0
LINE
  5
153
330
1F
100
AcDbEntity
  8
LAY-1
  6
CONTINUOUS
 62
     3
100
AcDbLine
 10
140.01398670282
 20
159.0000000000001
 30
0.0
 11
140.01398670282
 21
147.5000000000001
 31
0.0
  0
LINE
  5
154
330
1F
100
AcDbEntity
  8
LAY-1
  6
CONTINUOUS
 62
     3
100
AcDbLine
 10
83.0
 20
159.0000000000001
 30
0.0
 11
83.0
 21
147.5000000000001
 31
0.0
  0
LINE
  5
155
330
1F
100
AcDbEntity
  8
LAY-1
  6
CONTINUOUS
 62
     3
100
AcDbLine
 10
95.98601329718304
 20
159.0000000000001
 30
0.0
 11
95.98601329718306
 21
147.5000000000001
 31
0.0
  0
LINE
  5
156
330
1F
100
AcDbEntity
  8
LAY-1
  6
CONTINUOUS
 62
     3
100
AcDbLine
 10
95.986013297183
 20
147.5000000000001
 30
0.0
 11
83.0
 21
147.5000000000001
 31
0.0
  0
LINE
  5
157
330
1F
100
AcDbEntity
  8
LAY-1
  6
CONTINUOUS
 62
     3
100
AcDbLine
 10
140.01398670282
 20
147.5000000000001
 30
0.0
 11
153.0
 21
147.5000000000001
 31
0.0
  0
ARC
  5
158
330
1F
100
AcDbEntity
  8
LAY-1
  6
CONTINUOUS
 62
     3
100
AcDbCircle
 10
136.3919616067754
 20
153.2500000000001
 30
0.0
 40
16.60803839322457
100
AcDbArc
 50
339.7438419996993
 51
20.25615800030077
  0
ARC
  5
159
330
1F
100
AcDbEntity
  8
LAY-1
  6
CONTINUOUS
 62
     3
100
AcDbCircle
 10
156.6220250960446
 20
153.2500000000001
 30
0.0
 40
16.60803839322457
100
AcDbArc
 50
159.7438419996993
 51
200.2561580003008
  0
ARC
  5
15A
330
1F
100
AcDbEntity
  8
LAY-1
  6
CONTINUOUS
 62
     3
100
AcDbCircle
 10
79.37797490395843
 20
153.2500000000001
 30
0.0
 40
16.60803839322457
100
AcDbArc
 50
339.7438419996993
 51
20.25615800030083
  0
ARC
  5
15B
330
1F
100
AcDbEntity
  8
LAY-1
  6
CONTINUOUS
 62
     3
100
AcDbCircle
 10
99.60803839322762
 20
153.2500000000001
 30
0.0
 40
16.60803839322457
100
AcDbArc
 50
159.7438419996993
 51
200.2561580003008
  0
LINE
  5
15C
330
1F
100
AcDbEntity
  8
LAY-1
  6
CONTINUOUS
 62
     3
100
AcDbLine
 10
84.027138570983
 20
159.0
 30
0.0
 11
94.95887472620302
 21
159.0
 31
0.0
  0
LINE
  5
15D
330
1F
100
AcDbEntity
  8
LAY-1
  6
CONTINUOUS
 62
     3
100
AcDbLine
 10
141.0411252738
 20
159.0
 30
0.0
 11
151.97286142902
 21
159.0
 31
0.0
  0
ARC
  5
15E
330
1F
100
AcDbEntity
  8
LAY-1
  6
CONTINUOUS
 62
     3
100
AcDbCircle
 10
97.98601329718304
 20
170.0
 30
0.0
 40
2.0
100
AcDbArc
 50
180.0
 51
270.0
  0
ARC
  5
15F
330
1F
100
AcDbEntity
  8
LAY-1
  6
CONTINUOUS
 62
     3
100
AcDbCircle
 10
97.98601329718304
 20
164.5
 30
0.0
 40
2.0
100
AcDbArc
 50
180.0
 51
270.0
  0
ARC
  5
160
330
1F
100
AcDbEntity
  8
LAY-1
  6
CONTINUOUS
 62
     3
100
AcDbCircle
 10
138.01398670282
 20
170.0
 30
0.0
 40
2.0
100
AcDbArc
 50
270.0
 51
0.0
  0
ARC
  5
161
330
1F
100
AcDbEntity
  8
LAY-1
  6
CONTINUOUS
 62
     3
100
AcDbCircle
 10
138.01398670282
 20
164.5
 30
0.0
 40
2.0
100
AcDbArc
 50
270.0
 51
0.0
  0
LINE
  5
162
330
1F
100
AcDbEntity
  8
LAY-1
  6
CONTINUOUS
 62
     3
100
AcDbLine
 10
138.01398670282
 20
162.5
 30
0.0
 11
97.98601329718304
 21
162.5
 31
0.0
  0
LINE
  5
163
330
1F
100
AcDbEntity
  8
LAY-1
  6
CONTINUOUS
 62
     3
100
AcDbLine
 10
138.01398670282
 20
168.0
 30
0.0
 11
97.98601329718304
 21
168.0
 31
0.0
  0
LINE
  5
164
330
1F
100
AcDbEntity
  8
LAY-1
  6
CONTINUOUS
 62
     3
100
AcDbLine
 10
138.01398670282
 20
155.5000000000001
 30
0.0
 11
97.98601329718304
 21
155.5000000000001
 31
0.0
  0
LINE
  5
165
330
1F
100
AcDbEntity
  8
LAY-1
  6
CONTINUOUS
 62
     3
100
AcDbLine
 10
138.01398670282
 20
150.0000000000001
 30
0.0
 11
97.98601329718306
 21
150.0000000000001
 31
0.0
  0
ARC
  5
166
330
1F
100
AcDbEntity
  8
LAY-1
  6
CONTINUOUS
 62
     3
100
AcDbCircle
 10
97.98601329718306
 20
148.0000000000001
 30
0.0
 40
2.0
100
AcDbArc
 50
90.00000000000001
 51
180.0
  0
ARC
  5
167
330
1F
100
AcDbEntity
  8
LAY-1
  6
CONTINUOUS
 62
     3
100
AcDbCircle
 10
97.98601329718304
 20
153.5000000000001
 30
0.0
 40
2.0
100
AcDbArc
 50
90.00000000000001
 51
180.0
  0
ARC
  5
168
330
1F
100
AcDbEntity
  8
LAY-1
  6
CONTINUOUS
 62
     3
100
AcDbCircle
 10
138.01398670282
 20
153.5000000000001
 30
0.0
 40
2.0
100
AcDbArc
 50
0.0
 51
90.00000000000001
  0
ARC
  5
169
330
1F
100
AcDbEntity
  8
LAY-1
  6
CONTINUOUS
 62
     3
100
AcDbCircle
 10
138.01398670282
 20
148.0000000000001
 30
0.0
 40
2.0
100
AcDbArc
 50
0.0
 51
90.00000000000001
  0
ELLIPSE
  5
16A
330
1F
100
AcDbEntity
  8
LAY-1
  6
CONTINUOUS
 62
     3
100
AcDbEllipse
 10
125.52354820525
 20
159.0
 30
0.0
 11
-2.335156516614171E-15
 21
-12.71199999999999
 31
0.0
210
0.0
220
0.0
230
1.0
 40
0.707090468965545
 41
2.357447798043891
 42
3.141592653589793
  0
ELLIPSE
  5
16B
330
1F
100
AcDbEntity
  8
LAY-1
  6
CONTINUOUS
 62
     3
100
AcDbEllipse
 10
125.52354820525
 20
159.0000000000001
 30
0.0
 11
-4.866876530075935E-15
 21
12.71199999999999
 31
0.0
210
0.0
220
0.0
230
1.0
 40
0.707090468965545
 41
3.141592653589794
 42
3.925737509135693
  0
ARC
  5
16C
330
1F
100
AcDbEntity
  8
LAY-1
  6
CONTINUOUS
 62
     3
100
AcDbCircle
 10
116.4335843728301
 20
128.6525482675407
 30
0.0
 40
44.00845175616494
100
AcDbArc
 50
78.07972624537273
 51
107.8399025236352
  0
ARC
  5
16D
330
1F
100
AcDbEntity
  8
LAY-1
  6
CONTINUOUS
 62
     3
100
AcDbCircle
 10
104.329841362457
 20
166.2612861526127
 30
0.0
 40
4.5
100
AcDbArc
 50
107.8399025236352
 51
157.270507785405
  0
ARC
  5
16E
330
1F
100
AcDbEntity
  8
LAY-1
  6
CONTINUOUS
 62
     3
100
AcDbCircle
 10
104.329841362457
 20
151.7387138473873
 30
0.0
 40
4.5
100
AcDbArc
 50
202.7294922145951
 51
252.1600974763647
  0
ARC
  5
16F
330
1F
100
AcDbEntity
  8
LAY-1
  6
CONTINUOUS
 62
     3
100
AcDbCircle
 10
116.4335843728301
 20
189.3474517324594
 30
0.0
 40
44.00845175616494
100
AcDbArc
 50
252.1600974763683
 51
281.9202737546274
  0
ELLIPSE
  5
170
330
1F
100
AcDbEntity
  8
LAY-1
  6
CONTINUOUS
 62
     3
100
AcDbEllipse
 10
126.33452377915
 20
159.0
 30
0.0
 11
-2.571758278209441E-15
 21
-14.0
 31
0.0
210
0.0
220
0.0
230
1.0
 40
0.7071067811871421
 41
2.269018800157458
 42
3.487352532332264
  0
ELLIPSE
  5
171
330
1F
100
AcDbEntity
  8
LAY-1
  6
CONTINUOUS
 62
     3
100
AcDbEllipse
 10
133.40559159102
 20
159.0
 30
0.0
 11
-2.571758278209441E-15
 21
-14.0
 31
0.0
210
0.0
220
0.0
230
1.0
 40
0.7071067811864294
 41
2.41916564076941
 42
3.141592653589793
  0
LINE
  5
172
330
1F
100
AcDbEntity
  8
LAY-1
  6
CONTINUOUS
 62
     3
100
AcDbLine
 10
126.33452377915
 20
173.0
 30
0.0
 11
133.40559159102
 21
173.0
 31
0.0
  0
ELLIPSE
  5
173
330
1F
100
AcDbEntity
  8
LAY-1
  6
CONTINUOUS
 62
     3
100
AcDbEllipse
 10
126.33452377915
 20
159.0000000000001
 30
0.0
 11
-5.359996178497728E-15
 21
14.0
 31
0.0
210
0.0
220
0.0
230
1.0
 40
0.7071067811871421
 41
2.795832774847324
 42
4.014166507022129
  0
LINE
  5
174
330
1F
100
AcDbEntity
  8
LAY-1
  6
CONTINUOUS
 62
     3
100
AcDbLine
 10
126.33452377915
 20
145.0000000000001
 30
0.0
 11
133.40559159102
 21
145.0000000000001
 31
0.0
  0
ELLIPSE
  5
175
330
1F
100
AcDbEntity
  8
LAY-1
  6
CONTINUOUS
 62
     3
100
AcDbEllipse
 10
133.40559159102
 20
159.0000000000001
 30
0.0
 11
-5.359996178497728E-15
 21
14.0
 31
0.0
210
0.0
220
0.0
230
1.0
 40
0.7071067811864294
 41
3.141592653589795
 42
3.864019666410178
  0
LINE
  5
176
330
1F
100
AcDbEntity
  8
LAY-1
  6
EXLTYPE3
 62
     1
100
AcDbLine
 10
79.0
 20
158.9999999999998
 30
0.0
 11
157.0
 21
158.9999999999998
 31
0.0
  0
ELLIPSE
  5
177
330
1F
100
AcDbEntity
  8
LAY-1
  6
CONTINUOUS
 62
     3
100
AcDbEllipse
 10
210.0
 20
72.46268042533299
 30
0.0
 11
8.5
 21
0.0
 31
0.0
210
0.0
220
0.0
230
1.0
 40
0.7071067811864706
 41
0.0
 42
6.283185307179586
  0
LINE
  5
178
330
1F
100
AcDbEntity
  8
LAY-1
  6
CONTINUOUS
 62
     3
100
AcDbLine
 10
201.5000000000004
 20
76.46961885205782
 30
0.0
 11
210.0000000000001
 21
79.939729321001
 31
0.0
  0
LINE
  5
179
330
1F
100
AcDbEntity
  8
LAY-1
  6
CONTINUOUS
 62
     3
100
AcDbLine
 10
201.5000000000004
 20
76.46961885205782
 30
0.0
 11
201.5000000000003
 21
69.52939791417472
 31
0.0
  0
LINE
  5
17A
330
1F
100
AcDbEntity
  8
LAY-1
  6
CONTINUOUS
 62
     3
100
AcDbLine
 10
218.5000000000058
 20
76.46961885205874
 30
0.0
 11
218.5000000000058
 21
69.52939791417063
 31
0.0
  0
LINE
  5
17B
330
1F
100
AcDbEntity
  8
LAY-1
  6
CONTINUOUS
 62
     3
100
AcDbLine
 10
218.5000000000058
 20
76.46961885205874
 30
0.0
 11
209.9999999999999
 21
79.939729321001
 31
0.0
  0
LINE
  5
17C
330
1F
100
AcDbEntity
  8
LAY-1
  6
CONTINUOUS
 62
     3
100
AcDbLine
 10
201.5000000000003
 20
69.52939791417472
 30
0.0
 11
203.2399663504101
 21
68.81905962615488
 31
0.0
  0
LINE
  5
17D
330
1F
100
AcDbEntity
  8
LAY-1
  6
CONTINUOUS
 62
     3
100
AcDbLine
 10
208.9175109377004
 20
66.50121175435996
 30
0.0
 11
210.0000000000001
 21
66.05928744523003
 31
0.0
  0
LINE
  5
17E
330
1F
100
AcDbEntity
  8
LAY-1
  6
CONTINUOUS
 62
     3
100
AcDbLine
 10
218.5000000000058
 20
69.52939791417063
 30
0.0
 11
216.7600336495798
 21
68.81905962614553
 31
0.0
  0
LINE
  5
17F
330
1F
100
AcDbEntity
  8
LAY-1
  6
CONTINUOUS
 62
     3
100
AcDbLine
 10
211.0824890623022
 20
66.50121175436018
 30
0.0
 11
209.9999999999999
 21
66.05928744523003
 31
0.0
  0
LINE
  5
180
330
1F
100
AcDbEntity
  8
LAY-1
  6
CONTINUOUS
 62
     3
100
AcDbLine
 10
218.5000000000058
 20
80.88253836258373
 30
0.0
 11
209.9999999999999
 21
84.35264883152598
 31
0.0
  0
LINE
  5
181
330
1F
100
AcDbEntity
  8
LAY-1
  6
CONTINUOUS
 62
     3
100
AcDbLine
 10
201.5000000000004
 20
80.8825383625828
 30
0.0
 11
210.0000000000001
 21
84.35264883152598
 31
0.0
  0
LINE
  5
182
330
1F
100
AcDbEntity
  8
LAY-1
  6
CONTINUOUS
 62
     3
100
AcDbLine
 10
201.5
 20
80.882538362583
 30
0.0
 11
201.5
 21
76.46961885205802
 31
0.0
  0
LINE
  5
183
330
1F
100
AcDbEntity
  8
LAY-1
  6
CONTINUOUS
 62
     3
100
AcDbLine
 10
218.5
 20
80.882538362586
 30
0.0
 11
218.5
 21
76.46961885205901
 31
0.0
  0
ELLIPSE
  5
184
330
1F
100
AcDbEntity
  8
LAY-1
  6
CONTINUOUS
 62
     3
100
AcDbEllipse
 10
210.0
 20
78.119534674826
 30
0.0
 11
12.75
 21
0.0
 31
0.0
210
0.0
220
0.0
230
1.0
 40
0.7071067811865097
 41
5.442116636612263
 42
10.26584663133735
  0
ELLIPSE
  5
185
330
1F
100
AcDbEntity
  8
LAY-1
  6
CONTINUOUS
 62
     3
100
AcDbEllipse
 10
210.0
 20
80.594408408979
 30
0.0
 11
12.75
 21
0.0
 31
0.0
210
0.0
220
0.0
230
1.0
 40
0.7071067811864306
 41
0.0
 42
3.141592653589793
  0
LINE
  5
186
330
1F
100
AcDbEntity
  8
LAY-1
  6
CONTINUOUS
 62
     3
100
AcDbLine
 10
197.25
 20
80.594408408979
 30
0.0
 11
197.25
 21
78.119534674826
 31
0.0
  0
LINE
  5
187
330
1F
100
AcDbEntity
  8
LAY-1
  6
CONTINUOUS
 62
     3
100
AcDbLine
 10
222.75
 20
80.594408408979
 30
0.0
 11
222.75
 21
78.119534674826
 31
0.0
  0
ELLIPSE
  5
188
330
1F
100
AcDbEntity
  8
LAY-1
  6
CONTINUOUS
 62
     3
100
AcDbEllipse
 10
210.0
 20
80.594408408979
 30
0.0
 11
14.0
 21
0.0
 31
0.0
210
0.0
220
0.0
230
1.0
 40
0.7071067811864994
 41
5.79819590975249
 42
9.909767358196476
  0
ELLIPSE
  5
189
330
1F
100
AcDbEntity
  8
LAY-1
  6
CONTINUOUS
 62
     3
100
AcDbEllipse
 10
210.0
 20
87.665476220845
 30
0.0
 11
-14.0
 21
1.714505518806294E-15
 31
0.0
210
0.0
220
0.0
230
1.0
 40
0.7071067811865005
 41
3.141592653589793
 42
6.283185307179586
  0
LINE
  5
18A
330
1F
100
AcDbEntity
  8
LAY-1
  6
CONTINUOUS
 62
     3
100
AcDbLine
 10
196.0
 20
87.665476220845
 30
0.0
 11
196.0
 21
80.594408408979
 31
0.0
  0
LINE
  5
18B
330
1F
100
AcDbEntity
  8
LAY-1
  6
CONTINUOUS
 62
     3
100
AcDbLine
 10
224.0
 20
87.665476220845
 30
0.0
 11
224.0
 21
80.594408408979
 31
0.0
  0
LINE
  5
18C
330
1F
100
AcDbEntity
  8
LAY-1
  6
CONTINUOUS
 62
     3
100
AcDbLine
 10
210.0000000000001
 20
124.2790561913612
 30
0.0
 11
198.5
 21
117.6395280956804
 31
0.0
  0
LINE
  5
18D
330
1F
100
AcDbEntity
  8
LAY-1
  6
CONTINUOUS
 62
     3
100
AcDbLine
 10
198.5000000000001
 20
104.3604719043194
 30
0.0
 11
209.9999999999995
 21
97.72094380863905
 31
0.0
  0
LINE
  5
18E
330
1F
100
AcDbEntity
  8
LAY-1
  6
CONTINUOUS
 62
     3
100
AcDbLine
 10
198.5
 20
117.6395280956804
 30
0.0
 11
198.5
 21
104.3604719043194
 31
0.0
  0
CIRCLE
  5
18F
330
1F
100
AcDbEntity
  8
LAY-1
  6
CONTINUOUS
 62
     3
100
AcDbCircle
 10
210.0
 20
111.0
 30
0.0
 40
11.50000000000001
  0
LINE
  5
190
330
1F
100
AcDbEntity
  8
LAY-1
  6
CONTINUOUS
 62
     3
100
AcDbLine
 10
209.9999999999999
 20
124.2790561913612
 30
0.0
 11
221.5
 21
117.6395280956804
 31
0.0
  0
LINE
  5
191
330
1F
100
AcDbEntity
  8
LAY-1
  6
CONTINUOUS
 62
     3
100
AcDbLine
 10
221.5
 20
117.6395280956804
 30
0.0
 11
221.5
 21
104.3604719043194
 31
0.0
  0
LINE
  5
192
330
1F
100
AcDbEntity
  8
LAY-1
  6
CONTINUOUS
 62
     3
100
AcDbLine
 10
221.4999999999999
 20
104.3604719043194
 30
0.0
 11
210.0000000000005
 21
97.72094380863905
 31
0.0
  0
ARC
  5
193
330
1F
100
AcDbEntity
  8
LAY-1
  6
CONTINUOUS
 62
     3
100
AcDbCircle
 10
240.3474517324726
 20
97.56641562716727
 30
0.0
 40
44.00845175617817
100
AcDbArc
 50
161.9634496464369
 51
188.5540040489239
  0
ARC
  5
194
330
1F
100
AcDbEntity
  8
LAY-1
  6
CONTINUOUS
 62
     3
100
AcDbCircle
 10
179.6525482675274
 20
97.56641562716729
 30
0.0
 40
44.00845175617817
100
AcDbArc
 50
351.4459959510761
 51
18.03655035356308
  0
LINE
  5
195
330
1F
100
AcDbEntity
  8
LAY-1
  6
EXLTYPE3
 62
     1
100
AcDbLine
 10
210.0
 20
129.0
 30
0.0
 11
210.0
 21
62.0
 31
0.0
  0
CIRCLE
  5
196
330
1F
100
AcDbEntity
  8
LAY-1
  6
CONTINUOUS
 62
     3
100
AcDbCircle
 10
210.0
 20
111.0
 30
0.0
 40
7.475000000000002
  0
CIRCLE
  5
197
330
1F
100
AcDbEntity
  8
LAY-1
  6
CONTINUOUS
 62
     1
100
AcDbCircle
 10
210.0
 20
111.0
 30
0.0
 40
8.331000000000008
  0
LINE
  5
198
330
1F
100
AcDbEntity
  8
LAY-1
  6
EXLTYPE3
 62
     1
100
AcDbLine
 10
194.0
 20
111.0
 30
0.0
 11
226.0
 21
111.0
 31
0.0
  0
TEXT
  5
19A
330
1F
100
AcDbEntity
  8
LAY-1
  6
CONTINUOUS
 62
     3
100
AcDbText
 10
189.0
 20
168.5625
 30
0.0
 40
2.733242134062928
  1
ＳＴＡＩＮＬＥＳＳ　ＳＴＥＥＬ
  7
EXCADTTF1
 72
     5
 11
249.0
 21
168.5625
 31
0.0
100
AcDbText
  0
TEXT
  5
19B
330
1F
100
AcDbEntity
  8
LAY-1
  6
CONTINUOUS
 62
     3
100
AcDbText
 10
189.0
 20
160.5625
 30
0.0
 40
2.733242134062928
  1
Ｙ　ＴＹＰＥ　ＳＴＲＡＩＮＥＲ
  7
EXCADTTF1
 72
     5
 11
249.0
 21
160.5625
 31
0.0
100
AcDbText
  0
TEXT
  5
19C
330
1F
100
AcDbEntity
  8
LAY-1
  6
CONTINUOUS
 62
     3
100
AcDbText
 10
189.0
 20
152.5625
 30
0.0
 40
2.733242134062928
  1
２０ＳＹＬ－１３Ａ
  7
EXCADTTF1
 72
     5
 11
225.0
 21
152.5625
 31
0.0
100
AcDbText
  0
TEXT
  5
19D
330
1F
100
AcDbEntity
  8
LAY-1
  6
CONTINUOUS
 62
     3
100
AcDbText
 10
189.0
 20
144.5625
 30
0.0
 40
2.733242134062928
  1
２０Ｋ－3/8
  7
EXCADTTF1
 72
     5
 11
211.0
 21
144.5625
 31
0.0
100
AcDbText
  0
ENDSEC
  0
SECTION
  2
OBJECTS
  0
DICTIONARY
  5
C
330
0
100
AcDbDictionary
  3
ACAD_GROUP
350
D
  3
ACAD_LAYOUT
350
1A
  3
ACAD_MATERIAL
350
43
  3
ACAD_MLEADERSTYLE
350
1C0
  3
ACAD_MLINESTYLE
350
17
  3
ACAD_PLOTSETTINGS
350
19
  3
ACAD_SCALELIST
350
47
  3
ACAD_VISUALSTYLE
350
2A
  3
ACDBHEADERROUNDTRIPXREC
350
19E
  3
ACDBVARIABLEDICTIONARY
350
1BE
  0
DICTIONARY
  5
D
102
{ACAD_REACTORS
330
C
102
}
330
C
100
AcDbDictionary
  0
DICTIONARY
  5
1A
102
{ACAD_REACTORS
330
C
102
}
330
C
100
AcDbDictionary
  0
DICTIONARY
  5
43
102
{ACAD_REACTORS
330
C
102
}
330
C
100
AcDbDictionary
  3
BYBLOCK
350
45
  3
BYLAYER
350
44
  3
GLOBAL
350
46
  0
DICTIONARY
  5
1C0
102
{ACAD_REACTORS
330
C
102
}
330
C
100
AcDbDictionary
  0
DICTIONARY
  5
17
102
{ACAD_REACTORS
330
C
102
}
330
C
100
AcDbDictionary
  3
STANDARD
350
18
  0
DICTIONARY
  5
19
102
{ACAD_REACTORS
330
C
102
}
330
C
100
AcDbDictionary
  0
DICTIONARY
  5
47
102
{ACAD_REACTORS
330
C
102
}
330
C
100
AcDbDictionary
  3
A0
350
48
  3
A1
350
49
  3
A2
350
4A
  3
A3
350
4B
  3
A4
350
4C
  3
A5
350
4D
  3
A6
350
4E
  3
A7
350
4F
  3
A8
350
50
  3
A9
350
51
  3
B0
350
52
  3
B1
350
53
  3
B2
350
54
  3
B3
350
55
  3
B4
350
56
  3
B5
350
57
  3
B6
350
58
  3
B7
350
59
  3
B8
350
5A
  3
B9
350
5B
  3
C0
350
5C
  3
C1
350
5D
  3
C2
350
5E
  3
C3
350
5F
  3
C4
350
60
  3
C5
350
61
  3
C6
350
62
  3
C7
350
63
  3
C8
350
64
  3
C9
350
65
  3
D0
350
66
  3
D1
350
67
  3
D2
350
68
  0
DICTIONARY
  5
2A
102
{ACAD_REACTORS
330
C
102
}
330
C
100
AcDbDictionary
  3
2DWIREFRAME
350
2F
  3
BASIC
350
32
  3
BRIGHTEN
350
36
  3
COLORCHANGE
350
3A
  3
CONCEPTUAL
350
34
  3
DIM
350
35
  3
EDGECOLOROFF
350
3D
  3
FACEPATTERN
350
39
  3
FLAT
350
2B
  3
FLATWITHEDGES
350
2C
  3
GOURAUD
350
2D
  3
GOURAUDWITHEDGES
350
2E
  3
HIDDEN
350
31
  3
JITTEROFF
350
3B
  3
LINEPATTERN
350
38
  3
OVERHANGOFF
350
3C
  3
REALISTIC
350
33
  3
SHADED
350
42
  3
SHADED_WITH_EDGES
350
41
  3
SHADES_OF_GRAY
350
3E
  3
SKETCHY
350
3F
  3
THICKEN
350
37
  3
WIREFRAME
350
30
  3
X-RAY
350
40
  0
DICTIONARY
  5
19E
102
{ACAD_REACTORS
330
C
102
}
330
C
100
AcDbDictionary
  3
CEPSNTYPE
350
1A7
  3
DIMSTYLEDATA
350
1BD
  3
FINGERPRINTGUID
350
1A8
  3
HYPERLINKBASE
350
1A1
  3
INSUNITS
350
1A6
  3
LAYOUTDICT
350
1A3
  3
LWETCUNION
350
1A5
  3
PLOTSETDICT
350
1A4
  3
PSVPSCALE
350
1AA
  3
PUCSBASE
350
1AD
  3
PUCSORGBACK
350
1B3
  3
PUCSORGBOTTOM
350
1AF
  3
PUCSORGFRONT
350
1B2
  3
PUCSORGLEFT
350
1B0
  3
PUCSORGRIGHT
350
1B1
  3
PUCSORGTOP
350
1AE
  3
PUCSORTHOREF
350
1AB
  3
PUCSORTHOVIEW
350
1AC
  3
STYLESHEET
350
1A2
  3
TSTACKALIGN
350
19F
  3
TSTACKSIZE
350
1A0
  3
UCSBASE
350
1B6
  3
UCSORGBACK
350
1BC
  3
UCSORGBOTTOM
350
1B8
  3
UCSORGFRONT
350
1BB
  3
UCSORGLEFT
350
1B9
  3
UCSORGRIGHT
350
1BA
  3
UCSORGTOP
350
1B7
  3
UCSORTHOREF
350
1B4
  3
UCSORTHOVIEW
350
1B5
  3
VERSIONGUID
350
1A9
  0
DICTIONARY
  5
1BE
102
{ACAD_REACTORS
330
C
102
}
330
C
100
AcDbDictionary
  3
CANNOSCALE
350
1C7
  3
DIMASSOC
350
1C5
  3
HIDETEXT
350
1C6
  3
MSLTSCALE
350
1C8
  3
PSOLHEIGHT
350
1C2
  3
PSOLWIDTH
350
1C1
  0
MATERIAL
  5
45
102
{ACAD_REACTORS
330
43
102
}
102
{ACAD_XDICTIONARY
360
1CB
102
}
330
43
100
AcDbMaterial
  1
BYBLOCK
  0
MATERIAL
  5
44
102
{ACAD_REACTORS
330
43
102
}
102
{ACAD_XDICTIONARY
360
1C9
102
}
330
43
100
AcDbMaterial
  1
BYLAYER
  0
MATERIAL
  5
46
102
{ACAD_REACTORS
330
43
102
}
102
{ACAD_XDICTIONARY
360
1CD
102
}
330
43
100
AcDbMaterial
  1
GLOBAL
  0
MLINESTYLE
  5
18
102
{ACAD_REACTORS
330
17
102
}
330
17
100
AcDbMlineStyle
  2
Standard
 70
     0
  3

 62
   256
 51
90.0
 52
90.0
 71
     2
 49
0.5
 62
   256
  6
BYLAYER
 49
-0.5
 62
   256
  6
BYLAYER
  0
ACAD_PROXY_OBJECT
  5
48
102
{ACAD_REACTORS
330
47
102
}
330
47
100
AcDbProxyObject
 90
      499
 91
      503
 93
       41
310
903313A31580
  0
ACAD_PROXY_OBJECT
  5
49
102
{ACAD_REACTORS
330
47
102
}
330
47
100
AcDbProxyObject
 90
      499
 91
      503
 93
      105
310
903313A324000000000000004000
  0
ACAD_PROXY_OBJECT
  5
4A
102
{ACAD_REACTORS
330
47
102
}
330
47
100
AcDbProxyObject
 90
      499
 91
      503
 93
      105
310
903313A344000000000000104000
  0
ACAD_PROXY_OBJECT
  5
4B
102
{ACAD_REACTORS
330
47
102
}
330
47
100
AcDbProxyObject
 90
      499
 91
      503
 93
      105
310
903313A354000000000000144000
  0
ACAD_PROXY_OBJECT
  5
4C
102
{ACAD_REACTORS
330
47
102
}
330
47
100
AcDbProxyObject
 90
      499
 91
      503
 93
      105
310
903313A384000000000000204000
  0
ACAD_PROXY_OBJECT
  5
4D
102
{ACAD_REACTORS
330
47
102
}
330
47
100
AcDbProxyObject
 90
      499
 91
      503
 93
      113
310
904313A31304000000000000244000
  0
ACAD_PROXY_OBJECT
  5
4E
102
{ACAD_REACTORS
330
47
102
}
330
47
100
AcDbProxyObject
 90
      499
 91
      503
 93
      113
310
904313A31364000000000000304000
  0
ACAD_PROXY_OBJECT
  5
4F
102
{ACAD_REACTORS
330
47
102
}
330
47
100
AcDbProxyObject
 90
      499
 91
      503
 93
      113
310
904313A32304000000000000344000
  0
ACAD_PROXY_OBJECT
  5
50
102
{ACAD_REACTORS
330
47
102
}
330
47
100
AcDbProxyObject
 90
      499
 91
      503
 93
      113
310
904313A333040000000000003E4000
  0
ACAD_PROXY_OBJECT
  5
51
102
{ACAD_REACTORS
330
47
102
}
330
47
100
AcDbProxyObject
 90
      499
 91
      503
 93
      113
310
904313A34304000000000000444000
  0
ACAD_PROXY_OBJECT
  5
52
102
{ACAD_REACTORS
330
47
102
}
330
47
100
AcDbProxyObject
 90
      499
 91
      503
 93
      113
310
904313A35304000000000000494000
  0
ACAD_PROXY_OBJECT
  5
53
102
{ACAD_REACTORS
330
47
102
}
330
47
100
AcDbProxyObject
 90
      499
 91
      503
 93
      121
310
905313A3130304000000000000594000
  0
ACAD_PROXY_OBJECT
  5
54
102
{ACAD_REACTORS
330
47
102
}
330
47
100
AcDbProxyObject
 90
      499
 91
      503
 93
      105
310
903323A310000000000000010100
  0
ACAD_PROXY_OBJECT
  5
55
102
{ACAD_REACTORS
330
47
102
}
330
47
100
AcDbProxyObject
 90
      499
 91
      503
 93
      105
310
903343A310000000000000410100
  0
ACAD_PROXY_OBJECT
  5
56
102
{ACAD_REACTORS
330
47
102
}
330
47
100
AcDbProxyObject
 90
      499
 91
      503
 93
      105
310
903383A310000000000000810100
  0
ACAD_PROXY_OBJECT
  5
57
102
{ACAD_REACTORS
330
47
102
}
330
47
100
AcDbProxyObject
 90
      499
 91
      503
 93
      113
310
90431303A310000000000000910100
  0
ACAD_PROXY_OBJECT
  5
58
102
{ACAD_REACTORS
330
47
102
}
330
47
100
AcDbProxyObject
 90
      499
 91
      503
 93
      121
310
9053130303A310000000000001650100
  0
ACAD_PROXY_OBJECT
  5
59
102
{ACAD_REACTORS
330
47
102
}
330
47
100
AcDbProxyObject
 90
      499
 91
      503
 93
      257
310
90E312F31323822203D2031272D3022000000000000200FC000000000000284000
  0
ACAD_PROXY_OBJECT
  5
5A
102
{ACAD_REACTORS
330
47
102
}
330
47
100
AcDbProxyObject
 90
      499
 91
      503
 93
      249
310
90D312F363422203D2031272D3022000000000000240FC000000000000284000
  0
ACAD_PROXY_OBJECT
  5
5B
102
{ACAD_REACTORS
330
47
102
}
330
47
100
AcDbProxyObject
 90
      499
 91
      503
 93
      249
310
90D312F333222203D2031272D3022000000000000280FC000000000000284000
  0
ACAD_PROXY_OBJECT
  5
5C
102
{ACAD_REACTORS
330
47
102
}
330
47
100
AcDbProxyObject
 90
      499
 91
      503
 93
      249
310
90D312F313622203D2031272D30220000000000002C0FC000000000000284000
  0
ACAD_PROXY_OBJECT
  5
5D
102
{ACAD_REACTORS
330
47
102
}
330
47
100
AcDbProxyObject
 90
      499
 91
      503
 93
      249
310
90D332F333222203D2031272D30220000000000002E0FC000000000000284000
  0
ACAD_PROXY_OBJECT
  5
5E
102
{ACAD_REACTORS
330
47
102
}
330
47
100
AcDbProxyObject
 90
      499
 91
      503
 93
      241
310
90C312F3822203D2031272D3022000000000000300FC000000000000284000
  0
ACAD_PROXY_OBJECT
  5
5F
102
{ACAD_REACTORS
330
47
102
}
330
47
100
AcDbProxyObject
 90
      499
 91
      503
 93
      249
310
90D332F313622203D2031272D3022000000000000320FC000000000000284000
  0
ACAD_PROXY_OBJECT
  5
60
102
{ACAD_REACTORS
330
47
102
}
330
47
100
AcDbProxyObject
 90
      499
 91
      503
 93
      241
310
90C312F3422203D2031272D3022000000000000340FC000000000000284000
  0
ACAD_PROXY_OBJECT
  5
61
102
{ACAD_REACTORS
330
47
102
}
330
47
100
AcDbProxyObject
 90
      499
 91
      503
 93
      241
310
90C332F3822203D2031272D3022000000000000360FC000000000000284000
  0
ACAD_PROXY_OBJECT
  5
62
102
{ACAD_REACTORS
330
47
102
}
330
47
100
AcDbProxyObject
 90
      499
 91
      503
 93
      241
310
90C312F3222203D2031272D3022000000000000380FC000000000000284000
  0
ACAD_PROXY_OBJECT
  5
63
102
{ACAD_REACTORS
330
47
102
}
330
47
100
AcDbProxyObject
 90
      499
 91
      503
 93
      241
310
90C332F3422203D2031272D30220000000000003A0FC000000000000284000
  0
ACAD_PROXY_OBJECT
  5
64
102
{ACAD_REACTORS
330
47
102
}
330
47
100
AcDbProxyObject
 90
      499
 91
      503
 93
      161
310
90A3122203D2031272D30224000000000000284000
  0
ACAD_PROXY_OBJECT
  5
65
102
{ACAD_REACTORS
330
47
102
}
330
47
100
AcDbProxyObject
 90
      499
 91
      503
 93
      257
310
90E312D312F3222203D2031272D30220000000000003E0FC000000000000284000
  0
ACAD_PROXY_OBJECT
  5
66
102
{ACAD_REACTORS
330
47
102
}
330
47
100
AcDbProxyObject
 90
      499
 91
      503
 93
      225
310
90A3322203D2031272D302200000000000002100000000000000284000
  0
ACAD_PROXY_OBJECT
  5
67
102
{ACAD_REACTORS
330
47
102
}
330
47
100
AcDbProxyObject
 90
      499
 91
      503
 93
      225
310
90A3622203D2031272D302200000000000006100000000000000284000
  0
ACAD_PROXY_OBJECT
  5
68
102
{ACAD_REACTORS
330
47
102
}
330
47
100
AcDbProxyObject
 90
      499
 91
      503
 93
      249
310
90D31272D3022203D2031272D30220000000000000A100000000000000284000
  0
ACAD_PROXY_OBJECT
  5
2F
102
{ACAD_REACTORS
330
2A
102
}
330
2A
100
AcDbProxyObject
 90
      499
 91
      501
 93
      436
310
42CC9915DA5C99599C985B595049028333333333333E33F0000000000000F90107901411070040501600405405064090741402480A0340
1001
ACAD
1000
AcDbSavedByObjectVersion
1070
     0
  0
ACAD_PROXY_OBJECT
  5
32
102
{ACAD_REACTORS
330
2A
102
}
330
2A
100
AcDbProxyObject
 90
      499
 91
      501
 93
      388
310
4150985CDA58D07406404333333333333E33F0000000000000F90107A41107004050150841D405064090741402480A0350
1001
ACAD
1000
AcDbSavedByObjectVersion
1070
     0
  0
ACAD_PROXY_OBJECT
  5
36
102
{ACAD_REACTORS
330
2A
102
}
330
2A
100
AcDbProxyObject
 90
      499
 91
      501
 93
      428
310
42109C9A59DA1D195B90C409028333333333333E33F0000000000000F9010790141107004050150841D405064090741402480A029950
1001
ACAD
1000
AcDbSavedByObjectVersion
1070
     0
  0
ACAD_PROXY_OBJECT
  5
3A
102
{ACAD_REACTORS
330
2A
102
}
330
2A
100
AcDbProxyObject
 90
      499
 91
      501
 93
      452
310
42D0DBDB1BDC90DA185B99D95104090240C333333333333E33F0000000000000F90108901411070040501508421405064090741402480A0350
1001
ACAD
1000
AcDbSavedByObjectVersion
1070
     0
  0
ACAD_PROXY_OBJECT
  5
34
102
{ACAD_REACTORS
330
2A
102
}
330
2A
100
AcDbProxyObject
 90
      499
 91
      501
 93
      500
310
4290DBDB98D95C1D1D585B10940D028333333333333E33F0000000000000F90107902409070040501000000000018199010841D405064090740C02480A0340
1001
ACAD
1000
AcDbSavedByObjectVersion
1070
     0
  0
ACAD_PROXY_OBJECT
  5
35
102
{ACAD_REACTORS
330
2A
102
}
330
2A
100
AcDbProxyObject
 90
      499
 91
      501
 93
      412
310
40D11A5B50B409028333333333333E33F0000000000000F9010790141107004050150841D405064090741402480A02677FFFFFD0
1001
ACAD
1000
AcDbSavedByObjectVersion
1070
     0
  0
ACAD_PROXY_OBJECT
  5
3D
102
{ACAD_REACTORS
330
2A
102
}
330
2A
100
AcDbProxyObject
 90
      499
 91
      501
 93
      452
310
43115919D950DBDB1BDC93D999916409028333333333333E33F0000000000000F9010790141107004050150841D405064090741402480A0350
1001
ACAD
1000
AcDbSavedByObjectVersion
1070
     0
  0
ACAD_PROXY_OBJECT
  5
39
102
{ACAD_REACTORS
330
2A
102
}
330
2A
100
AcDbProxyObject
 90
      499
 91
      501
 93
      444
310
42D19858D95C185D1D195C9B90F409028333333333333E33F0000000000000F9010790141107004050150841D405064090741402480A0350
1001
ACAD
1000
AcDbSavedByObjectVersion
1070
     0
  0
ACAD_PROXY_OBJECT
  5
2B
102
{ACAD_REACTORS
330
2A
102
}
330
2A
100
AcDbProxyObject
 90
      499
 91
      501
 93
      380
310
41119B185D240901404333333333333E33F0000000000000F9010740A907004050150841D405064090741402480A1B50
1001
ACAD
1000
AcDbSavedByObjectVersion
1070
     0
  0
ACAD_PROXY_OBJECT
  5
2C
102
{ACAD_REACTORS
330
2A
102
}
330
2A
100
AcDbProxyObject
 90
      499
 91
      501
 93
      468
310
43519B185D15DA5D1A115919D95CD0140901404333333333333E33F0000000000000F90107409019070040501600405405064090741402480A1B50
1001
ACAD
1000
AcDbSavedByObjectVersion
1070
     0
  0
ACAD_PROXY_OBJECT
  5
2D
102
{ACAD_REACTORS
330
2A
102
}
330
2A
100
AcDbProxyObject
 90
      499
 91
      501
 93
      404
310
41D1DBDD5C985D5910240902404333333333333E33F0000000000000F9010740A9070040501641D405064090741402480A1B50
1001
ACAD
1000
AcDbSavedByObjectVersion
1070
     0
  0
ACAD_PROXY_OBJECT
  5
2E
102
{ACAD_REACTORS
330
2A
102
}
330
2A
100
AcDbProxyObject
 90
      499
 91
      501
 93
      492
310
4411DBDD5C985D5915DA5D1A115919D95CD0340902404333333333333E33F0000000000000F90107409019070040501600405405064090741402480A1B50
1001
ACAD
1000
AcDbSavedByObjectVersion
1070
     0
  0
ACAD_PROXY_OBJECT
  5
31
102
{ACAD_REACTORS
330
2A
102
}
330
2A
100
AcDbProxyObject
 90
      499
 91
      501
 93
      476
310
41921A5919195B90640502408333333333333E33F0000000000000F901079024090700405020000000000001110200405405064090740C02480A0340
1001
ACAD
1000
AcDbSavedByObjectVersion
1070
     0
  0
ACAD_PROXY_OBJECT
  5
3B
102
{ACAD_REACTORS
330
2A
102
}
330
2A
100
AcDbProxyObject
 90
      499
 91
      501
 93
      428
310
42529A5D1D195C93D999914409028333333333333E33F0000000000000F9010790141107004050150A41D405064090741402480A0350
1001
ACAD
1000
AcDbSavedByObjectVersion
1070
     0
  0
ACAD_PROXY_OBJECT
  5
38
102
{ACAD_REACTORS
330
2A
102
}
330
2A
100
AcDbProxyObject
 90
      499
 91
      501
 93
      444
310
42D31A5B995C185D1D195C9B90E409028333333333333E33F0000000000000F9010790141107004050750841D405064090741402483A0350
1001
ACAD
1000
AcDbSavedByObjectVersion
1070
     0
  0
ACAD_PROXY_OBJECT
  5
3C
102
{ACAD_REACTORS
330
2A
102
}
330
2A
100
AcDbProxyObject
 90
      499
 91
      501
 93
      444
310
42D3DD995C9A185B99D3D999915409028333333333333E33F0000000000000F9010790141107004050150941D405064090741402480A0350
1001
ACAD
1000
AcDbSavedByObjectVersion
1070
     0
  0
ACAD_PROXY_OBJECT
  5
33
102
{ACAD_REACTORS
330
2A
102
}
330
2A
100
AcDbProxyObject
 90
      499
 91
      501
 93
      428
310
425499585B1A5CDD1A58D08409038333333333333E33F0000000000000F9010740A907004050150800405405064090740C02480A1B40
1001
ACAD
1000
AcDbSavedByObjectVersion
1070
     0
  0
ACAD_PROXY_OBJECT
  5
42
102
{ACAD_REACTORS
330
2A
102
}
330
2A
100
AcDbProxyObject
 90
      499
 91
      501
 93
      420
310
4194DA1859195911B40902404333333333333E33F0000000000000F9010740A41107004050150800405405064090840C02480A0B40
1001
ACAD
1000
AcDbSavedByObjectVersion
1070
     0
  0
ACAD_PROXY_OBJECT
  5
41
102
{ACAD_REACTORS
330
2A
102
}
330
2A
100
AcDbProxyObject
 90
      499
 91
      501
 93
      516
310
4454DA18591959081DDA5D1A08195919D95CD1A40902404333333333333E33F0000000000000F901074090142907004050250800405405064090740C02480A0B40
1001
ACAD
1000
AcDbSavedByObjectVersion
1070
     0
  0
ACAD_PROXY_OBJECT
  5
3E
102
{ACAD_REACTORS
330
2A
102
}
330
2A
100
AcDbProxyObject
 90
      499
 91
      501
 93
      532
310
4394DA1859195CC81BD98811DC985E5174090240C333333333333E33F0000000000000F901079024090741D01000000000000111010841D405064090740C02480A0340
1001
ACAD
1000
AcDbSavedByObjectVersion
1070
     0
  0
ACAD_PROXY_OBJECT
  5
3F
102
{ACAD_REACTORS
330
2A
102
}
330
2A
100
AcDbProxyObject
 90
      499
 91
      501
 93
      476
310
41D4DAD95D18DA1E51840502408333333333333E33F0000000000000F901079024090741D01000000000000111010B41D405064090741802480A0340
1001
ACAD
1000
AcDbSavedByObjectVersion
1070
     0
  0
ACAD_PROXY_OBJECT
  5
37
102
{ACAD_REACTORS
330
2A
102
}
330
2A
100
AcDbProxyObject
 90
      499
 91
      501
 93
      412
310
41D51A1A58DAD95B90D409028333333333333E33F0000000000000F9010790141107004050150C41D405064090741402480A0350
1001
ACAD
1000
AcDbSavedByObjectVersion
1070
     0
  0
ACAD_PROXY_OBJECT
  5
30
102
{ACAD_REACTORS
330
2A
102
}
330
2A
100
AcDbProxyObject
 90
      499
 91
      501
 93
      420
310
4255DA5C99599C985B595059028333333333333E33F0000000000000F90107901411070040501600405405064090740C02480A0340
1001
ACAD
1000
AcDbSavedByObjectVersion
1070
     0
  0
ACAD_PROXY_OBJECT
  5
40
102
{ACAD_REACTORS
330
2A
102
}
330
2A
100
AcDbProxyObject
 90
      499
 91
      501
 93
      404
310
41560B54985E51940902404000000000000E03F0000000000000F9010740501907004050150841D405064090740C02480A1B40
1001
ACAD
1000
AcDbSavedByObjectVersion
1070
     0
  0
XRECORD
  5
1A7
102
{ACAD_REACTORS
330
19E
102
}
330
19E
100
AcDbXrecord
 90
        0
  0
XRECORD
  5
1BD
102
{ACAD_REACTORS
330
19E
102
}
330
19E
100
AcDbXrecord
1000
DSTYLE
1002
{
1070
   340
340
11
1002
}
  0
XRECORD
  5
1A8
102
{ACAD_REACTORS
330
19E
102
}
330
19E
100
AcDbXrecord
  1
{7B5CBF0B-E546-47F5-825B-A8B89FD50E8D}
  0
XRECORD
  5
1A1
102
{ACAD_REACTORS
330
19E
102
}
330
19E
100
AcDbXrecord
  1

  0
XRECORD
  5
1A6
102
{ACAD_REACTORS
330
19E
102
}
330
19E
100
AcDbXrecord
 90
        4
  0
XRECORD
  5
1A3
102
{ACAD_REACTORS
330
19E
102
}
330
19E
100
AcDbXrecord
340
1A
  0
XRECORD
  5
1A5
102
{ACAD_REACTORS
330
19E
102
}
330
19E
100
AcDbXrecord
 90
    10781
  0
XRECORD
  5
1A4
102
{ACAD_REACTORS
330
19E
102
}
330
19E
100
AcDbXrecord
340
19
  0
XRECORD
  5
1AA
102
{ACAD_REACTORS
330
19E
102
}
330
19E
100
AcDbXrecord
 40
0.0
  0
XRECORD
  5
1AD
102
{ACAD_REACTORS
330
19E
102
}
330
19E
100
AcDbXrecord
340
0
  0
XRECORD
  5
1B3
102
{ACAD_REACTORS
330
19E
102
}
330
19E
100
AcDbXrecord
 10
0.0
 20
0.0
 30
0.0
  0
XRECORD
  5
1AF
102
{ACAD_REACTORS
330
19E
102
}
330
19E
100
AcDbXrecord
 10
0.0
 20
0.0
 30
0.0
  0
XRECORD
  5
1B2
102
{ACAD_REACTORS
330
19E
102
}
330
19E
100
AcDbXrecord
 10
0.0
 20
0.0
 30
0.0
  0
XRECORD
  5
1B0
102
{ACAD_REACTORS
330
19E
102
}
330
19E
100
AcDbXrecord
 10
0.0
 20
0.0
 30
0.0
  0
XRECORD
  5
1B1
102
{ACAD_REACTORS
330
19E
102
}
330
19E
100
AcDbXrecord
 10
0.0
 20
0.0
 30
0.0
  0
XRECORD
  5
1AE
102
{ACAD_REACTORS
330
19E
102
}
330
19E
100
AcDbXrecord
 10
0.0
 20
0.0
 30
0.0
  0
XRECORD
  5
1AB
102
{ACAD_REACTORS
330
19E
102
}
330
19E
100
AcDbXrecord
340
0
  0
XRECORD
  5
1AC
102
{ACAD_REACTORS
330
19E
102
}
330
19E
100
AcDbXrecord
 70
     0
  0
XRECORD
  5
1A2
102
{ACAD_REACTORS
330
19E
102
}
330
19E
100
AcDbXrecord
  1

  0
XRECORD
  5
19F
102
{ACAD_REACTORS
330
19E
102
}
330
19E
100
AcDbXrecord
 90
        1
  0
XRECORD
  5
1A0
102
{ACAD_REACTORS
330
19E
102
}
330
19E
100
AcDbXrecord
 90
       70
  0
XRECORD
  5
1B6
102
{ACAD_REACTORS
330
19E
102
}
330
19E
100
AcDbXrecord
340
0
  0
XRECORD
  5
1BC
102
{ACAD_REACTORS
330
19E
102
}
330
19E
100
AcDbXrecord
 10
0.0
 20
0.0
 30
0.0
  0
XRECORD
  5
1B8
102
{ACAD_REACTORS
330
19E
102
}
330
19E
100
AcDbXrecord
 10
0.0
 20
0.0
 30
0.0
  0
XRECORD
  5
1BB
102
{ACAD_REACTORS
330
19E
102
}
330
19E
100
AcDbXrecord
 10
0.0
 20
0.0
 30
0.0
  0
XRECORD
  5
1B9
102
{ACAD_REACTORS
330
19E
102
}
330
19E
100
AcDbXrecord
 10
0.0
 20
0.0
 30
0.0
  0
XRECORD
  5
1BA
102
{ACAD_REACTORS
330
19E
102
}
330
19E
100
AcDbXrecord
 10
0.0
 20
0.0
 30
0.0
  0
XRECORD
  5
1B7
102
{ACAD_REACTORS
330
19E
102
}
330
19E
100
AcDbXrecord
 10
0.0
 20
0.0
 30
0.0
  0
XRECORD
  5
1B4
102
{ACAD_REACTORS
330
19E
102
}
330
19E
100
AcDbXrecord
340
0
  0
XRECORD
  5
1B5
102
{ACAD_REACTORS
330
19E
102
}
330
19E
100
AcDbXrecord
 70
     0
  0
XRECORD
  5
1A9
102
{ACAD_REACTORS
330
19E
102
}
330
19E
100
AcDbXrecord
  1
{FAEB1C32-E019-11D5-929B-00C0DF256EC4}
  0
DICTIONARYVAR
  5
1C7
102
{ACAD_REACTORS
330
1BE
102
}
330
1BE
100
DictionaryVariables
280
     0
  1
1:1
  0
DICTIONARYVAR
  5
1C5
102
{ACAD_REACTORS
330
1BE
102
}
330
1BE
100
DictionaryVariables
280
     0
  1
2
  0
DICTIONARYVAR
  5
1C6
102
{ACAD_REACTORS
330
1BE
102
}
330
1BE
100
DictionaryVariables
280
     0
  1
1
  0
DICTIONARYVAR
  5
1C8
102
{ACAD_REACTORS
330
1BE
102
}
330
1BE
100
DictionaryVariables
280
     0
  1
1
  0
DICTIONARYVAR
  5
1C2
102
{ACAD_REACTORS
330
1BE
102
}
330
1BE
100
DictionaryVariables
280
     0
  1
80.000000
  0
DICTIONARYVAR
  5
1C1
102
{ACAD_REACTORS
330
1BE
102
}
330
1BE
100
DictionaryVariables
280
     0
  1
5.000000
  0
DICTIONARY
  5
1CB
330
45
100
AcDbDictionary
280
     1
  3
ACAD_XREC_ROUNDTRIP
360
1CC
  0
DICTIONARY
  5
1C9
330
44
100
AcDbDictionary
280
     1
  3
ACAD_XREC_ROUNDTRIP
360
1CA
  0
DICTIONARY
  5
1CD
330
46
100
AcDbDictionary
280
     1
  3
ACAD_XREC_ROUNDTRIP
360
1CE
  0
XRECORD
  5
1CC
102
{ACAD_REACTORS
330
1CB
102
}
330
1CB
100
AcDbXrecord
102
MATERIAL
148
0.0
149
0.0
149
0.0
 93
        0
 94
      127
282
     0
 72
     1
 77
     1
171
     1
175
     1
179
     1
273
     0
  0
XRECORD
  5
1CA
102
{ACAD_REACTORS
330
1C9
102
}
330
1C9
100
AcDbXrecord
102
MATERIAL
148
0.0
149
0.0
149
0.0
 93
        0
 94
      127
282
     0
 72
     1
 77
     1
171
     1
175
     1
179
     1
273
     0
  0
XRECORD
  5
1CE
102
{ACAD_REACTORS
330
1CD
102
}
330
1CD
100
AcDbXrecord
102
MATERIAL
148
0.0
149
0.0
149
0.0
 93
        0
 94
      127
282
     0
 72
     1
 77
     1
171
     1
175
     1
179
     1
273
     0
  0
ENDSEC
  0
EOF
