  0
SECTION
  2
HEADER
  9
$ACADVER
  1
AC1014
  9
$ACADMAINTVER
 70
     9
  9
$DWGCODEPAGE
  3
ANSI_932
  9
$INSBASE
 10
0.0
 20
0.0
 30
0.0
  9
$EXTMIN
 10
39.00000000000001
 20
21.0
 30
0.0
  9
$EXTMAX
 10
345.0
 20
270.0
 30
0.0
  9
$LIMMIN
 10
0.0
 20
0.0
  9
$LIMMAX
 10
420.0
 20
297.0
  9
$ORTHOMODE
 70
     0
  9
$REGENMODE
 70
     1
  9
$FILLMODE
 70
     1
  9
$QTEXTMODE
 70
     0
  9
$MIRRTEXT
 70
     1
  9
$DRAGMODE
 70
     2
  9
$LTSCALE
 40
1.0
  9
$OSMODE
 70
    37
  9
$ATTMODE
 70
     1
  9
$TEXTSIZE
 40
2.5
  9
$TRACEWID
 40
1.0
  9
$TEXTSTYLE
  7
STANDARD
  9
$CLAYER
  8
LAY-1
  9
$CELTYPE
  6
BYLAYER
  9
$CECOLOR
 62
   256
  9
$CELTSCALE
 40
1.0
  9
$DELOBJ
 70
     1
  9
$DISPSILH
 70
     0
  9
$DIMSCALE
 40
1.0
  9
$DIMASZ
 40
2.5
  9
$DIMEXO
 40
0.625
  9
$DIMDLI
 40
3.75
  9
$DIMRND
 40
0.0
  9
$DIMDLE
 40
0.0
  9
$DIMEXE
 40
1.25
  9
$DIMTP
 40
0.0
  9
$DIMTM
 40
0.0
  9
$DIMTXT
 40
2.5
  9
$DIMCEN
 40
2.5
  9
$DIMTSZ
 40
0.0
  9
$DIMTOL
 70
     0
  9
$DIMLIM
 70
     0
  9
$DIMTIH
 70
     0
  9
$DIMTOH
 70
     0
  9
$DIMSE1
 70
     0
  9
$DIMSE2
 70
     0
  9
$DIMTAD
 70
     1
  9
$DIMZIN
 70
     8
  9
$DIMBLK
  1

  9
$DIMASO
 70
     1
  9
$DIMSHO
 70
     1
  9
$DIMPOST
  1

  9
$DIMAPOST
  1

  9
$DIMALT
 70
     0
  9
$DIMALTD
 70
     3
  9
$DIMALTF
 40
0.03937007874016
  9
$DIMLFAC
 40
1.0
  9
$DIMTOFL
 70
     1
  9
$DIMTVP
 40
0.0
  9
$DIMTIX
 70
     0
  9
$DIMSOXD
 70
     0
  9
$DIMSAH
 70
     0
  9
$DIMBLK1
  1

  9
$DIMBLK2
  1

  9
$DIMSTYLE
  2
ISO-25
  9
$DIMCLRD
 70
     0
  9
$DIMCLRE
 70
     0
  9
$DIMCLRT
 70
     0
  9
$DIMTFAC
 40
1.0
  9
$DIMGAP
 40
0.625
  9
$DIMJUST
 70
     0
  9
$DIMSD1
 70
     0
  9
$DIMSD2
 70
     0
  9
$DIMTOLJ
 70
     0
  9
$DIMTZIN
 70
     8
  9
$DIMALTZ
 70
     0
  9
$DIMALTTZ
 70
     0
  9
$DIMFIT
 70
     3
  9
$DIMUPT
 70
     0
  9
$DIMUNIT
 70
     2
  9
$DIMDEC
 70
     2
  9
$DIMTDEC
 70
     2
  9
$DIMALTU
 70
     2
  9
$DIMALTTD
 70
     3
  9
$DIMTXSTY
  7
STANDARD
  9
$DIMAUNIT
 70
     0
  9
$LUNITS
 70
     2
  9
$LUPREC
 70
     4
  9
$SKETCHINC
 40
1.0
  9
$FILLETRAD
 40
10.0
  9
$AUNITS
 70
     0
  9
$AUPREC
 70
     0
  9
$MENU
  1
.
  9
$ELEVATION
 40
0.0
  9
$PELEVATION
 40
0.0
  9
$THICKNESS
 40
0.0
  9
$LIMCHECK
 70
     0
  9
$CHAMFERA
 40
0.0
  9
$CHAMFERB
 40
0.0
  9
$CHAMFERC
 40
0.0
  9
$CHAMFERD
 40
0.0
  9
$SKPOLY
 70
     0
  9
$TDCREATE
 40
2458271.483681643
  9
$TDUPDATE
 40
2458271.483681817
  9
$TDINDWG
 40
0.0000000116
  9
$TDUSRTIMER
 40
0.0000000116
  9
$USRTIMER
 70
     1
  9
$ANGBASE
 50
0.0
  9
$ANGDIR
 70
     0
  9
$PDMODE
 70
     0
  9
$PDSIZE
 40
0.0
  9
$PLINEWID
 40
0.0
  9
$COORDS
 70
     1
  9
$SPLFRAME
 70
     0
  9
$SPLINETYPE
 70
     6
  9
$SPLINESEGS
 70
     8
  9
$ATTDIA
 70
     0
  9
$ATTREQ
 70
     1
  9
$HANDLING
 70
     1
  9
$HANDSEED
  5
201
  9
$SURFTAB1
 70
     6
  9
$SURFTAB2
 70
     6
  9
$SURFTYPE
 70
     6
  9
$SURFU
 70
     6
  9
$SURFV
 70
     6
  9
$UCSNAME
  2

  9
$UCSORG
 10
0.0
 20
0.0
 30
0.0
  9
$UCSXDIR
 10
1.0
 20
0.0
 30
0.0
  9
$UCSYDIR
 10
0.0
 20
1.0
 30
0.0
  9
$PUCSNAME
  2

  9
$PUCSORG
 10
0.0
 20
0.0
 30
0.0
  9
$PUCSXDIR
 10
1.0
 20
0.0
 30
0.0
  9
$PUCSYDIR
 10
0.0
 20
1.0
 30
0.0
  9
$USERI1
 70
     0
  9
$USERI2
 70
     0
  9
$USERI3
 70
     0
  9
$USERI4
 70
     0
  9
$USERI5
 70
     0
  9
$USERR1
 40
0.0
  9
$USERR2
 40
0.0
  9
$USERR3
 40
0.0
  9
$USERR4
 40
0.0
  9
$USERR5
 40
0.0
  9
$WORLDVIEW
 70
     1
  9
$SHADEDGE
 70
     3
  9
$SHADEDIF
 70
    70
  9
$TILEMODE
 70
     1
  9
$MAXACTVP
 70
    64
  9
$PINSBASE
 10
0.0
 20
0.0
 30
0.0
  9
$PLIMCHECK
 70
     0
  9
$PEXTMIN
 10
1.000000000000000E+20
 20
1.000000000000000E+20
 30
1.000000000000000E+20
  9
$PEXTMAX
 10
-1.000000000000000E+20
 20
-1.000000000000000E+20
 30
-1.000000000000000E+20
  9
$PLIMMIN
 10
0.0
 20
0.0
  9
$PLIMMAX
 10
420.0
 20
297.0
  9
$UNITMODE
 70
     0
  9
$VISRETAIN
 70
     1
  9
$PLINEGEN
 70
     0
  9
$PSLTSCALE
 70
     1
  9
$TREEDEPTH
 70
  3020
  9
$PICKSTYLE
 70
     1
  9
$CMLSTYLE
  2
STANDARD
  9
$CMLJUST
 70
     0
  9
$CMLSCALE
 40
20.0
  9
$PROXYGRAPHICS
 70
     1
  9
$MEASUREMENT
 70
     1
  0
ENDSEC
  0
SECTION
  2
CLASSES
  0
CLASS
  1
ACDBDICTIONARYWDFLT
  2
AcDbDictionaryWithDefault
  3
ObjectDBX Classes
 90
        0
280
     0
281
     0
  0
CLASS
  1
VISUALSTYLE
  2
AcDbVisualStyle
  3
ObjectDBX Classes
 90
     4095
280
     0
281
     0
  0
CLASS
  1
MATERIAL
  2
AcDbMaterial
  3
ObjectDBX Classes
 90
     1153
280
     0
281
     0
  0
CLASS
  1
SCALE
  2
AcDbScale
  3
ObjectDBX Classes
 90
     1153
280
     0
281
     0
  0
CLASS
  1
TABLESTYLE
  2
AcDbTableStyle
  3
ObjectDBX Classes
 90
     4095
280
     0
281
     0
  0
CLASS
  1
MLEADERSTYLE
  2
AcDbMLeaderStyle
  3
ACDB_MLEADERSTYLE_CLASS
 90
     4095
280
     0
281
     0
  0
CLASS
  1
SUN
  2
AcDbSun
  3
SCENEOE
 90
     1153
280
     0
281
     0
  0
CLASS
  1
DICTIONARYVAR
  2
AcDbDictionaryVar
  3
ObjectDBX Classes
 90
        0
280
     0
281
     0
  0
CLASS
  1
XRECORD
  2
AcDbXrecord
  3
ObjectDBX Classes
 90
        0
280
     0
281
     0
  0
CLASS
  1
LWPOLYLINE
  2
AcDbPolyline
  3
ObjectDBX Classes
 90
        0
280
     0
281
     1
  0
CLASS
  1
HATCH
  2
AcDbHatch
  3
ObjectDBX Classes
 90
        0
280
     0
281
     1
  0
CLASS
  1
ACDBPLACEHOLDER
  2
AcDbPlaceHolder
  3
ObjectDBX Classes
 90
        0
280
     0
281
     0
  0
CLASS
  1
LAYOUT
  2
AcDbLayout
  3
ObjectDBX Classes
 90
        0
280
     0
281
     0
  0
ENDSEC
  0
SECTION
  2
TABLES
  0
TABLE
  2
VPORT
  5
8
102
{ACAD_XDICTIONARY
360
1F6
102
}
330
0
100
AcDbSymbolTable
 70
     1
  0
VPORT
  5
29
330
8
100
AcDbSymbolTableRecord
100
AcDbViewportTableRecord
  2
*ACTIVE
 70
     0
 10
0.0
 20
0.0
 11
1.0
 21
1.0
 12
192.0
 22
145.5
 13
0.0
 23
0.0
 14
10.0
 24
10.0
 15
10.0
 25
10.0
 16
0.0
 26
0.0
 36
1.0
 17
0.0
 27
0.0
 37
0.0
 40
249.0
 41
1.228915662650602
 42
50.0
 43
0.0
 44
0.0
 50
0.0
 51
0.0
 71
     0
 72
  1000
 73
     1
 74
     3
 75
     0
 76
     0
 77
     0
 78
     0
  0
ENDTAB
  0
TABLE
  2
LTYPE
  5
5
330
0
100
AcDbSymbolTable
 70
    13
  0
LTYPE
  5
14
330
5
100
AcDbSymbolTableRecord
100
AcDbLinetypeTableRecord
  2
BYBLOCK
 70
     0
  3

 72
    65
 73
     0
 40
0.0
  0
LTYPE
  5
15
330
5
100
AcDbSymbolTableRecord
100
AcDbLinetypeTableRecord
  2
BYLAYER
 70
     0
  3

 72
    65
 73
     0
 40
0.0
  0
LTYPE
  5
16
330
5
100
AcDbSymbolTableRecord
100
AcDbLinetypeTableRecord
  2
CONTINUOUS
 70
     0
  3
Solid line
 72
    65
 73
     0
 40
0.0
  0
LTYPE
  5
6E
330
5
100
AcDbSymbolTableRecord
100
AcDbLinetypeTableRecord
  2
EXLTYPE0
 70
     0
  3
破線
 72
    65
 73
     2
 40
3.8
 49
3.0
 74
     0
 49
-0.8
 74
     0
  0
LTYPE
  5
6F
330
5
100
AcDbSymbolTableRecord
100
AcDbLinetypeTableRecord
  2
EXLTYPE1
 70
     0
  3
点線
 72
    65
 73
     2
 40
2.0
 49
1.0
 74
     0
 49
-1.0
 74
     0
  0
LTYPE
  5
70
330
5
100
AcDbSymbolTableRecord
100
AcDbLinetypeTableRecord
  2
EXLTYPE2
 70
     0
  3
一点鎖線
 72
    65
 73
     4
 40
13.0
 49
10.0
 74
     0
 49
-1.0
 74
     0
 49
1.0
 74
     0
 49
-1.0
 74
     0
  0
LTYPE
  5
71
330
5
100
AcDbSymbolTableRecord
100
AcDbLinetypeTableRecord
  2
EXLTYPE3
 70
     0
  3
二点鎖線
 72
    65
 73
     6
 40
15.0
 49
10.0
 74
     0
 49
-1.0
 74
     0
 49
1.0
 74
     0
 49
-1.0
 74
     0
 49
1.0
 74
     0
 49
-1.0
 74
     0
  0
LTYPE
  5
72
330
5
100
AcDbSymbolTableRecord
100
AcDbLinetypeTableRecord
  2
EXLTYPE4
 70
     0
  3
三点鎖線
 72
    65
 73
     8
 40
37.0
 49
30.0
 74
     0
 49
-1.0
 74
     0
 49
1.0
 74
     0
 49
-1.0
 74
     0
 49
1.0
 74
     0
 49
-1.0
 74
     0
 49
1.0
 74
     0
 49
-1.0
 74
     0
  0
LTYPE
  5
73
330
5
100
AcDbSymbolTableRecord
100
AcDbLinetypeTableRecord
  2
EXLTYPE5
 70
     0
  3
四点鎖線
 72
    65
 73
    10
 40
39.0
 49
30.0
 74
     0
 49
-1.0
 74
     0
 49
1.0
 74
     0
 49
-1.0
 74
     0
 49
1.0
 74
     0
 49
-1.0
 74
     0
 49
1.0
 74
     0
 49
-1.0
 74
     0
 49
1.0
 74
     0
 49
-1.0
 74
     0
  0
LTYPE
  5
74
330
5
100
AcDbSymbolTableRecord
100
AcDbLinetypeTableRecord
  2
EXLTYPE6
 70
     0
  3
一点鎖線2
 72
    65
 73
     4
 40
7.100000000000001
 49
5.0
 74
     0
 49
-0.7
 74
     0
 49
0.7
 74
     0
 49
-0.7
 74
     0
  0
LTYPE
  5
75
330
5
100
AcDbSymbolTableRecord
100
AcDbLinetypeTableRecord
  2
EXLTYPE7
 70
     0
  3
二点鎖線3
 72
    65
 73
     6
 40
4.5
 49
2.0
 74
     0
 49
-0.5
 74
     0
 49
0.5
 74
     0
 49
-0.5
 74
     0
 49
0.5
 74
     0
 49
-0.5
 74
     0
  0
LTYPE
  5
76
330
5
100
AcDbSymbolTableRecord
100
AcDbLinetypeTableRecord
  2
EXLTYPE8
 70
     0
  3
二点鎖線2
 72
    65
 73
     6
 40
7.5
 49
5.0
 74
     0
 49
-0.5
 74
     0
 49
0.5
 74
     0
 49
-0.5
 74
     0
 49
0.5
 74
     0
 49
-0.5
 74
     0
  0
LTYPE
  5
77
330
5
100
AcDbSymbolTableRecord
100
AcDbLinetypeTableRecord
  2
EXLTYPE9
 70
     0
  3
二点鎖線3
 72
    65
 73
     6
 40
4.5
 49
2.0
 74
     0
 49
-0.5
 74
     0
 49
0.5
 74
     0
 49
-0.5
 74
     0
 49
0.5
 74
     0
 49
-0.5
 74
     0
  0
LTYPE
  5
78
330
5
100
AcDbSymbolTableRecord
100
AcDbLinetypeTableRecord
  2
EXLTYPE10
 70
     0
  3
二点鎖線2
 72
    65
 73
     6
 40
7.5
 49
5.0
 74
     0
 49
-0.5
 74
     0
 49
0.5
 74
     0
 49
-0.5
 74
     0
 49
0.5
 74
     0
 49
-0.5
 74
     0
  0
LTYPE
  5
79
330
5
100
AcDbSymbolTableRecord
100
AcDbLinetypeTableRecord
  2
EXLTYPE11
 70
     0
  3
点線2
 72
    65
 73
     2
 40
1.0
 49
0.5
 74
     0
 49
-0.5
 74
     0
  0
ENDTAB
  0
TABLE
  2
LAYER
  5
2
330
0
100
AcDbSymbolTable
 70
     2
  0
LAYER
  5
10
330
2
100
AcDbSymbolTableRecord
100
AcDbLayerTableRecord
  2
0
 70
     0
 62
     7
  6
CONTINUOUS
  0
LAYER
  5
7C
330
2
100
AcDbSymbolTableRecord
100
AcDbLayerTableRecord
  2
LAY-1
 70
     0
 62
     7
  6
CONTINUOUS
  0
ENDTAB
  0
TABLE
  2
STYLE
  5
3
330
0
100
AcDbSymbolTable
 70
     4
  0
STYLE
  5
11
330
3
100
AcDbSymbolTableRecord
100
AcDbTextStyleTableRecord
  2
STANDARD
 70
     0
 40
0.0
 41
1.0
 50
0.0
 71
     0
 42
2.5
  3
monotxt
  4
extfont
  0
STYLE
  5
7A
330
3
100
AcDbSymbolTableRecord
100
AcDbTextStyleTableRecord
  2
EXCADSTD
 70
     0
 40
0.0
 41
1.0
 50
0.0
 71
     0
 42
2.5
  3
monotxt
  4
extfont
  0
STYLE
  5
7B
330
3
100
AcDbSymbolTableRecord
100
AcDbTextStyleTableRecord
  2
EXCADVERT
 70
     4
 40
0.0
 41
1.0
 50
0.0
 71
     0
 42
2.5
  3
monotxt
  4
extfont
  0
STYLE
  5
1C7
330
3
100
AcDbSymbolTableRecord
100
AcDbTextStyleTableRecord
  2
EXCADTTF1
 70
     0
 40
0.0
 41
1.0
 50
0.0
 71
     0
 42
2.5
  3
msmincho.ttc
  4

1001
ACAD
1000
MS Mincho
1071
    32785
  0
ENDTAB
  0
TABLE
  2
VIEW
  5
6
330
0
100
AcDbSymbolTable
 70
     0
  0
ENDTAB
  0
TABLE
  2
UCS
  5
7
330
0
100
AcDbSymbolTable
 70
     0
  0
ENDTAB
  0
TABLE
  2
APPID
  5
9
330
0
100
AcDbSymbolTable
 70
     2
  0
APPID
  5
12
330
9
100
AcDbSymbolTableRecord
100
AcDbRegAppTableRecord
  2
ACAD
 70
     0
  0
APPID
  5
200
330
9
100
AcDbSymbolTableRecord
100
AcDbRegAppTableRecord
  2
ACAD_MLEADERVER
 70
     0
  0
ENDTAB
  0
TABLE
  2
DIMSTYLE
  5
A
330
0
100
AcDbSymbolTable
 70
     1
  0
DIMSTYLE
105
27
330
A
100
AcDbSymbolTableRecord
100
AcDbDimStyleTableRecord
  2
ISO-25
 70
     0
  3

  4

  5

  6

  7

 40
1.0
 41
2.5
 42
0.625
 43
3.75
 44
1.25
 45
0.0
 46
0.0
 47
0.0
 48
0.0
140
2.5
141
2.5
142
0.0
143
0.03937007874016
144
1.0
145
0.0
146
1.0
147
0.625
 71
     0
 72
     0
 73
     0
 74
     0
 75
     0
 76
     0
 77
     1
 78
     8
170
     0
171
     3
172
     1
173
     0
174
     0
175
     0
176
     0
177
     0
178
     0
270
     2
271
     2
272
     2
273
     2
274
     3
340
11
275
     0
280
     0
281
     0
282
     0
283
     0
284
     8
285
     0
286
     0
287
     5
288
     0
  0
ENDTAB
  0
TABLE
  2
BLOCK_RECORD
  5
1
330
0
100
AcDbSymbolTable
 70
    15
  0
BLOCK_RECORD
  5
1F
330
1
100
AcDbSymbolTableRecord
100
AcDbBlockTableRecord
  2
*MODEL_SPACE
  0
BLOCK_RECORD
  5
1B
330
1
100
AcDbSymbolTableRecord
100
AcDbBlockTableRecord
  2
*PAPER_SPACE
  0
BLOCK_RECORD
  5
7D
330
1
100
AcDbSymbolTableRecord
100
AcDbBlockTableRecord
  2
EX_NORM
  0
BLOCK_RECORD
  5
80
330
1
100
AcDbSymbolTableRecord
100
AcDbBlockTableRecord
  2
EX_BNORM
  0
BLOCK_RECORD
  5
83
330
1
100
AcDbSymbolTableRecord
100
AcDbBlockTableRecord
  2
EX_BCIR
  0
BLOCK_RECORD
  5
86
330
1
100
AcDbSymbolTableRecord
100
AcDbBlockTableRecord
  2
EX_RCIVIL
  0
BLOCK_RECORD
  5
89
330
1
100
AcDbSymbolTableRecord
100
AcDbBlockTableRecord
  2
EX_SLANT
  0
BLOCK_RECORD
  5
8C
330
1
100
AcDbSymbolTableRecord
100
AcDbBlockTableRecord
  2
EX_NONE
  0
BLOCK_RECORD
  5
8F
330
1
100
AcDbSymbolTableRecord
100
AcDbBlockTableRecord
  2
EX_CIVIL
  0
BLOCK_RECORD
  5
92
330
1
100
AcDbSymbolTableRecord
100
AcDbBlockTableRecord
  2
EX_WCIR
  0
BLOCK_RECORD
  5
95
330
1
100
AcDbSymbolTableRecord
100
AcDbBlockTableRecord
  2
EX_WCIR2
  0
BLOCK_RECORD
  5
98
330
1
100
AcDbSymbolTableRecord
100
AcDbBlockTableRecord
  2
EX_WNORM
  0
BLOCK_RECORD
  5
9B
330
1
100
AcDbSymbolTableRecord
100
AcDbBlockTableRecord
  2
EX_NNORM
  0
BLOCK_RECORD
  5
9E
330
1
100
AcDbSymbolTableRecord
100
AcDbBlockTableRecord
  2
EX_BBOX
  0
BLOCK_RECORD
  5
A1
330
1
100
AcDbSymbolTableRecord
100
AcDbBlockTableRecord
  2
EX_WBOX
  0
BLOCK_RECORD
  5
A4
330
1
100
AcDbSymbolTableRecord
100
AcDbBlockTableRecord
  2
EX_INTEGRAL
  0
ENDTAB
  0
ENDSEC
  0
SECTION
  2
BLOCKS
  0
BLOCK
  5
20
330
1F
100
AcDbEntity
  8
0
100
AcDbBlockBegin
  2
*MODEL_SPACE
 70
     0
 10
0.0
 20
0.0
 30
0.0
  3
*MODEL_SPACE
  1

  0
ENDBLK
  5
21
330
1F
100
AcDbEntity
  8
0
100
AcDbBlockEnd
  0
BLOCK
  5
1C
330
1B
100
AcDbEntity
 67
     1
  8
0
100
AcDbBlockBegin
  2
*PAPER_SPACE
 70
     0
 10
0.0
 20
0.0
 30
0.0
  3
*PAPER_SPACE
  1

  0
ENDBLK
  5
1D
330
1B
100
AcDbEntity
 67
     1
  8
0
100
AcDbBlockEnd
  0
BLOCK
  5
7E
330
7D
100
AcDbEntity
  8
0
100
AcDbBlockBegin
  2
EX_NORM
 70
     0
 10
0.0
 20
0.0
 30
0.0
  3
EX_NORM
  1

  0
LINE
  5
A7
330
7D
100
AcDbEntity
  8
0
  6
CONTINUOUS
 62
     0
100
AcDbLine
 10
0.0
 20
0.0
 30
0.0
 11
-1.0
 21
0.0
 31
0.0
  0
LINE
  5
A8
330
7D
100
AcDbEntity
  8
0
  6
CONTINUOUS
 62
     0
100
AcDbLine
 10
0.0
 20
0.0
 30
0.0
 11
-1.0
 21
0.166666667
 31
0.0
  0
LINE
  5
A9
330
7D
100
AcDbEntity
  8
0
  6
CONTINUOUS
 62
     0
100
AcDbLine
 10
0.0
 20
0.0
 30
0.0
 11
-1.0
 21
-0.166666667
 31
0.0
  0
ENDBLK
  5
7F
330
7D
100
AcDbEntity
  8
0
100
AcDbBlockEnd
  0
BLOCK
  5
81
330
80
100
AcDbEntity
  8
0
100
AcDbBlockBegin
  2
EX_BNORM
 70
     0
 10
0.0
 20
0.0
 30
0.0
  3
EX_BNORM
  1

  0
LINE
  5
AA
330
80
100
AcDbEntity
  8
0
  6
CONTINUOUS
 62
     0
100
AcDbLine
 10
0.0
 20
0.0
 30
0.0
 11
-1.0
 21
0.0
 31
0.0
  0
LINE
  5
AB
330
80
100
AcDbEntity
  8
0
  6
CONTINUOUS
 62
     0
100
AcDbLine
 10
0.0
 20
0.0
 30
0.0
 11
-1.0
 21
0.166666667
 31
0.0
  0
LINE
  5
AC
330
80
100
AcDbEntity
  8
0
  6
CONTINUOUS
 62
     0
100
AcDbLine
 10
0.0
 20
0.0
 30
0.0
 11
-1.0
 21
-0.166666667
 31
0.0
  0
LINE
  5
AD
330
80
100
AcDbEntity
  8
0
  6
CONTINUOUS
 62
     0
100
AcDbLine
 10
0.0
 20
0.0
 30
0.0
 11
-1.0
 21
0.083333333
 31
0.0
  0
LINE
  5
AE
330
80
100
AcDbEntity
  8
0
  6
CONTINUOUS
 62
     0
100
AcDbLine
 10
0.0
 20
0.0
 30
0.0
 11
-1.0
 21
-0.083333333
 31
0.0
  0
LINE
  5
AF
330
80
100
AcDbEntity
  8
0
  6
CONTINUOUS
 62
     0
100
AcDbLine
 10
-1.0
 20
0.166666667
 30
0.0
 11
-1.0
 21
-0.166666667
 31
0.0
  0
ENDBLK
  5
82
330
80
100
AcDbEntity
  8
0
100
AcDbBlockEnd
  0
BLOCK
  5
84
330
83
100
AcDbEntity
  8
0
100
AcDbBlockBegin
  2
EX_BCIR
 70
     0
 10
0.0
 20
0.0
 30
0.0
  3
EX_BCIR
  1

  0
LINE
  5
B0
330
83
100
AcDbEntity
  8
0
  6
CONTINUOUS
 62
     0
100
AcDbLine
 10
0.0
 20
0.0
 30
0.0
 11
-1.0
 21
0.0
 31
0.0
  0
CIRCLE
  5
B1
330
83
100
AcDbEntity
  8
0
  6
CONTINUOUS
 62
     0
100
AcDbCircle
 10
0.0
 20
0.0
 30
0.0
 40
0.5
  0
CIRCLE
  5
B2
330
83
100
AcDbEntity
  8
0
  6
CONTINUOUS
 62
     0
100
AcDbCircle
 10
0.0
 20
0.0
 30
0.0
 40
0.25
  0
ENDBLK
  5
85
330
83
100
AcDbEntity
  8
0
100
AcDbBlockEnd
  0
BLOCK
  5
87
330
86
100
AcDbEntity
  8
0
100
AcDbBlockBegin
  2
EX_RCIVIL
 70
     0
 10
0.0
 20
0.0
 30
0.0
  3
EX_RCIVIL
  1

  0
LINE
  5
B3
330
86
100
AcDbEntity
  8
0
  6
CONTINUOUS
 62
     0
100
AcDbLine
 10
0.0
 20
0.0
 30
0.0
 11
-1.0
 21
0.0
 31
0.0
  0
LINE
  5
B4
330
86
100
AcDbEntity
  8
0
  6
CONTINUOUS
 62
     0
100
AcDbLine
 10
-1.0
 20
-0.25
 30
0.0
 11
0.0
 21
-0.25
 31
0.0
  0
LINE
  5
B5
330
86
100
AcDbEntity
  8
0
  6
CONTINUOUS
 62
     0
100
AcDbLine
 10
-1.0
 20
-0.125
 30
0.0
 11
0.0
 21
-0.125
 31
0.0
  0
ENDBLK
  5
88
330
86
100
AcDbEntity
  8
0
100
AcDbBlockEnd
  0
BLOCK
  5
8A
330
89
100
AcDbEntity
  8
0
100
AcDbBlockBegin
  2
EX_SLANT
 70
     0
 10
0.0
 20
0.0
 30
0.0
  3
EX_SLANT
  1

  0
LINE
  5
B6
330
89
100
AcDbEntity
  8
0
  6
CONTINUOUS
 62
     0
100
AcDbLine
 10
0.0
 20
0.0
 30
0.0
 11
-1.0
 21
0.0
 31
0.0
  0
LINE
  5
B7
330
89
100
AcDbEntity
  8
0
  6
CONTINUOUS
 62
     0
100
AcDbLine
 10
0.707106781
 20
0.707106781
 30
0.0
 11
-0.707106781
 21
-0.707106781
 31
0.0
  0
ENDBLK
  5
8B
330
89
100
AcDbEntity
  8
0
100
AcDbBlockEnd
  0
BLOCK
  5
8D
330
8C
100
AcDbEntity
  8
0
100
AcDbBlockBegin
  2
EX_NONE
 70
     0
 10
0.0
 20
0.0
 30
0.0
  3
EX_NONE
  1

  0
LINE
  5
B8
330
8C
100
AcDbEntity
  8
0
  6
CONTINUOUS
 62
     0
100
AcDbLine
 10
0.0
 20
0.0
 30
0.0
 11
-1.0
 21
0.0
 31
0.0
  0
ENDBLK
  5
8E
330
8C
100
AcDbEntity
  8
0
100
AcDbBlockEnd
  0
BLOCK
  5
90
330
8F
100
AcDbEntity
  8
0
100
AcDbBlockBegin
  2
EX_CIVIL
 70
     0
 10
0.0
 20
0.0
 30
0.0
  3
EX_CIVIL
  1

  0
LINE
  5
B9
330
8F
100
AcDbEntity
  8
0
  6
CONTINUOUS
 62
     0
100
AcDbLine
 10
0.0
 20
0.0
 30
0.0
 11
-1.0
 21
0.0
 31
0.0
  0
LINE
  5
BA
330
8F
100
AcDbEntity
  8
0
  6
CONTINUOUS
 62
     0
100
AcDbLine
 10
-1.0
 20
0.25
 30
0.0
 11
0.0
 21
0.25
 31
0.0
  0
LINE
  5
BB
330
8F
100
AcDbEntity
  8
0
  6
CONTINUOUS
 62
     0
100
AcDbLine
 10
-1.0
 20
0.125
 30
0.0
 11
0.0
 21
0.125
 31
0.0
  0
ENDBLK
  5
91
330
8F
100
AcDbEntity
  8
0
100
AcDbBlockEnd
  0
BLOCK
  5
93
330
92
100
AcDbEntity
  8
0
100
AcDbBlockBegin
  2
EX_WCIR
 70
     0
 10
0.0
 20
0.0
 30
0.0
  3
EX_WCIR
  1

  0
LINE
  5
BC
330
92
100
AcDbEntity
  8
0
  6
CONTINUOUS
 62
     0
100
AcDbLine
 10
0.0
 20
0.0
 30
0.0
 11
-1.0
 21
0.0
 31
0.0
  0
CIRCLE
  5
BD
330
92
100
AcDbEntity
  8
0
  6
CONTINUOUS
 62
     0
100
AcDbCircle
 10
0.0
 20
0.0
 30
0.0
 40
0.5
  0
ENDBLK
  5
94
330
92
100
AcDbEntity
  8
0
100
AcDbBlockEnd
  0
BLOCK
  5
96
330
95
100
AcDbEntity
  8
0
100
AcDbBlockBegin
  2
EX_WCIR2
 70
     0
 10
0.0
 20
0.0
 30
0.0
  3
EX_WCIR2
  1

  0
LINE
  5
BE
330
95
100
AcDbEntity
  8
0
  6
CONTINUOUS
 62
     0
100
AcDbLine
 10
-0.5
 20
0.0
 30
0.0
 11
-1.0
 21
0.0
 31
0.0
  0
CIRCLE
  5
BF
330
95
100
AcDbEntity
  8
0
  6
CONTINUOUS
 62
     0
100
AcDbCircle
 10
0.0
 20
0.0
 30
0.0
 40
0.5
  0
ENDBLK
  5
97
330
95
100
AcDbEntity
  8
0
100
AcDbBlockEnd
  0
BLOCK
  5
99
330
98
100
AcDbEntity
  8
0
100
AcDbBlockBegin
  2
EX_WNORM
 70
     0
 10
0.0
 20
0.0
 30
0.0
  3
EX_WNORM
  1

  0
LINE
  5
C0
330
98
100
AcDbEntity
  8
0
  6
CONTINUOUS
 62
     0
100
AcDbLine
 10
-1.0
 20
0.0
 30
0.0
 11
-1.0
 21
0.0
 31
0.0
  0
LINE
  5
C1
330
98
100
AcDbEntity
  8
0
  6
CONTINUOUS
 62
     0
100
AcDbLine
 10
0.0
 20
0.0
 30
0.0
 11
-1.0
 21
0.166666667
 31
0.0
  0
LINE
  5
C2
330
98
100
AcDbEntity
  8
0
  6
CONTINUOUS
 62
     0
100
AcDbLine
 10
0.0
 20
0.0
 30
0.0
 11
-1.0
 21
-0.166666667
 31
0.0
  0
LINE
  5
C3
330
98
100
AcDbEntity
  8
0
  6
CONTINUOUS
 62
     0
100
AcDbLine
 10
-1.0
 20
0.166666667
 30
0.0
 11
-1.0
 21
-0.166666667
 31
0.0
  0
ENDBLK
  5
9A
330
98
100
AcDbEntity
  8
0
100
AcDbBlockEnd
  0
BLOCK
  5
9C
330
9B
100
AcDbEntity
  8
0
100
AcDbBlockBegin
  2
EX_NNORM
 70
     0
 10
0.0
 20
0.0
 30
0.0
  3
EX_NNORM
  1

  0
LINE
  5
C4
330
9B
100
AcDbEntity
  8
0
  6
CONTINUOUS
 62
     0
100
AcDbLine
 10
0.0
 20
0.0
 30
0.0
 11
-1.0
 21
0.0
 31
0.0
  0
LINE
  5
C5
330
9B
100
AcDbEntity
  8
0
  6
CONTINUOUS
 62
     0
100
AcDbLine
 10
0.0
 20
0.0
 30
0.0
 11
-1.0
 21
0.166666667
 31
0.0
  0
LINE
  5
C6
330
9B
100
AcDbEntity
  8
0
  6
CONTINUOUS
 62
     0
100
AcDbLine
 10
0.0
 20
0.0
 30
0.0
 11
-1.0
 21
-0.166666667
 31
0.0
  0
LINE
  5
C7
330
9B
100
AcDbEntity
  8
0
  6
CONTINUOUS
 62
     0
100
AcDbLine
 10
-1.0
 20
0.166666667
 30
0.0
 11
-1.0
 21
-0.166666667
 31
0.0
  0
ENDBLK
  5
9D
330
9B
100
AcDbEntity
  8
0
100
AcDbBlockEnd
  0
BLOCK
  5
9F
330
9E
100
AcDbEntity
  8
0
100
AcDbBlockBegin
  2
EX_BBOX
 70
     0
 10
0.0
 20
0.0
 30
0.0
  3
EX_BBOX
  1

  0
LINE
  5
C8
330
9E
100
AcDbEntity
  8
0
  6
CONTINUOUS
 62
     0
100
AcDbLine
 10
0.0
 20
0.0
 30
0.0
 11
-1.0
 21
0.0
 31
0.0
  0
LINE
  5
C9
330
9E
100
AcDbEntity
  8
0
  6
CONTINUOUS
 62
     0
100
AcDbLine
 10
-0.5
 20
0.5
 30
0.0
 11
0.5
 21
0.5
 31
0.0
  0
LINE
  5
CA
330
9E
100
AcDbEntity
  8
0
  6
CONTINUOUS
 62
     0
100
AcDbLine
 10
0.5
 20
0.5
 30
0.0
 11
0.5
 21
-0.5
 31
0.0
  0
LINE
  5
CB
330
9E
100
AcDbEntity
  8
0
  6
CONTINUOUS
 62
     0
100
AcDbLine
 10
0.5
 20
-0.5
 30
0.0
 11
-0.5
 21
-0.5
 31
0.0
  0
LINE
  5
CC
330
9E
100
AcDbEntity
  8
0
  6
CONTINUOUS
 62
     0
100
AcDbLine
 10
-0.5
 20
-0.5
 30
0.0
 11
-0.5
 21
0.5
 31
0.0
  0
LINE
  5
CD
330
9E
100
AcDbEntity
  8
0
  6
CONTINUOUS
 62
     0
100
AcDbLine
 10
-0.25
 20
0.25
 30
0.0
 11
0.25
 21
0.25
 31
0.0
  0
LINE
  5
CE
330
9E
100
AcDbEntity
  8
0
  6
CONTINUOUS
 62
     0
100
AcDbLine
 10
0.25
 20
0.25
 30
0.0
 11
0.25
 21
-0.25
 31
0.0
  0
LINE
  5
CF
330
9E
100
AcDbEntity
  8
0
  6
CONTINUOUS
 62
     0
100
AcDbLine
 10
0.25
 20
-0.25
 30
0.0
 11
-0.25
 21
-0.25
 31
0.0
  0
LINE
  5
D0
330
9E
100
AcDbEntity
  8
0
  6
CONTINUOUS
 62
     0
100
AcDbLine
 10
-0.25
 20
-0.25
 30
0.0
 11
-0.25
 21
0.25
 31
0.0
  0
ENDBLK
  5
A0
330
9E
100
AcDbEntity
  8
0
100
AcDbBlockEnd
  0
BLOCK
  5
A2
330
A1
100
AcDbEntity
  8
0
100
AcDbBlockBegin
  2
EX_WBOX
 70
     0
 10
0.0
 20
0.0
 30
0.0
  3
EX_WBOX
  1

  0
LINE
  5
D1
330
A1
100
AcDbEntity
  8
0
  6
CONTINUOUS
 62
     0
100
AcDbLine
 10
-0.5
 20
0.0
 30
0.0
 11
-1.0
 21
0.0
 31
0.0
  0
LINE
  5
D2
330
A1
100
AcDbEntity
  8
0
  6
CONTINUOUS
 62
     0
100
AcDbLine
 10
-0.5
 20
0.5
 30
0.0
 11
0.5
 21
0.5
 31
0.0
  0
LINE
  5
D3
330
A1
100
AcDbEntity
  8
0
  6
CONTINUOUS
 62
     0
100
AcDbLine
 10
0.5
 20
0.5
 30
0.0
 11
0.5
 21
-0.5
 31
0.0
  0
LINE
  5
D4
330
A1
100
AcDbEntity
  8
0
  6
CONTINUOUS
 62
     0
100
AcDbLine
 10
0.5
 20
-0.5
 30
0.0
 11
-0.5
 21
-0.5
 31
0.0
  0
LINE
  5
D5
330
A1
100
AcDbEntity
  8
0
  6
CONTINUOUS
 62
     0
100
AcDbLine
 10
-0.5
 20
-0.5
 30
0.0
 11
-0.5
 21
0.5
 31
0.0
  0
ENDBLK
  5
A3
330
A1
100
AcDbEntity
  8
0
100
AcDbBlockEnd
  0
BLOCK
  5
A5
330
A4
100
AcDbEntity
  8
0
100
AcDbBlockBegin
  2
EX_INTEGRAL
 70
     0
 10
0.0
 20
0.0
 30
0.0
  3
EX_INTEGRAL
  1

  0
LINE
  5
D6
330
A4
100
AcDbEntity
  8
0
  6
CONTINUOUS
 62
     0
100
AcDbLine
 10
0.0
 20
0.0
 30
0.0
 11
-1.0
 21
0.0
 31
0.0
  0
ARC
  5
D7
330
A4
100
AcDbEntity
  8
0
  6
CONTINUOUS
 62
     0
100
AcDbCircle
 10
0.542115
 20
0.164992
 30
0.0
 40
0.56667
100
AcDbArc
 50
73.07249033629006
 51
196.9275130221199
  0
ARC
  5
D8
330
A4
100
AcDbEntity
  8
0
  6
CONTINUOUS
 62
     0
100
AcDbCircle
 10
-0.542115
 20
-0.164992
 30
0.0
 40
0.56667
100
AcDbArc
 50
253.0724869220464
 51
16.9275130559125
  0
ENDBLK
  5
A6
330
A4
100
AcDbEntity
  8
0
100
AcDbBlockEnd
  0
ENDSEC
  0
SECTION
  2
ENTITIES
  0
LINE
  5
D9
330
1F
100
AcDbEntity
  8
LAY-1
  6
CONTINUOUS
 62
     3
100
AcDbLine
 10
108.809397513304
 20
38.02765158279351
 30
0.0
 11
117.2946788875456
 21
29.54237020855169
 31
0.0
  0
LINE
  5
DA
330
1F
100
AcDbEntity
  8
LAY-1
  6
CONTINUOUS
 62
     3
100
AcDbLine
 10
130.3761543394969
 20
42.62384566050281
 30
0.0
 11
143.457629791448
 21
55.70532111245393
 31
0.0
  0
LINE
  5
DB
330
1F
100
AcDbEntity
  8
LAY-1
  6
CONTINUOUS
 62
     3
100
AcDbLine
 10
130.3761543394969
 20
42.62384566050281
 30
0.0
 11
117.2946788875456
 21
29.54237020855169
 31
0.0
  0
LINE
  5
DC
330
1F
100
AcDbEntity
  8
LAY-1
  6
CONTINUOUS
 62
     3
100
AcDbLine
 10
108.9193402549831
 20
38.13759432447227
 30
0.0
 11
108.809397513304
 21
38.02765158279351
 31
0.0
  0
ARC
  5
DD
330
1F
100
AcDbEntity
  8
LAY-1
  6
CONTINUOUS
 62
     3
100
AcDbCircle
 10
108.2122334737981
 20
38.84470110566019
 30
0.0
 40
1.0
100
AcDbArc
 50
315.0000000000002
 51
58.12363961968408
  0
LINE
  5
DE
330
1F
100
AcDbEntity
  8
LAY-1
  6
CONTINUOUS
 62
     3
100
AcDbLine
 10
134.8624056755275
 20
64.08065974501648
 30
0.0
 11
134.9723484172061
 21
64.19060248669564
 31
0.0
  0
LINE
  5
DF
330
1F
100
AcDbEntity
  8
LAY-1
  6
CONTINUOUS
 62
     3
100
AcDbLine
 10
74.99999999999949
 20
102.4999999999996
 30
0.0
 11
61.69841725308754
 21
105.4559072770912
 31
0.0
  0
ARC
  5
E0
330
1F
100
AcDbEntity
  8
LAY-1
  6
CONTINUOUS
 62
     3
100
AcDbCircle
 10
62.99999999999949
 20
111.3130296381949
 30
0.0
 40
6.000000000000004
100
AcDbArc
 50
180.0
 51
257.4711922908485
  0
ARC
  5
E1
330
1F
100
AcDbEntity
  8
LAY-1
  6
CONTINUOUS
 62
     3
100
AcDbCircle
 10
94.31370849898445
 20
109.4486503387762
 30
0.0
 40
10.0
100
AcDbArc
 50
239.8124927288778
 51
300.1875072711223
  0
ARC
  5
E2
330
1F
100
AcDbEntity
  8
LAY-1
  6
CONTINUOUS
 62
     3
100
AcDbCircle
 10
82.99999999999949
 20
89.99999999999963
 30
0.0
 40
12.49999999999998
100
AcDbArc
 50
59.81249272887737
 51
89.99999999999973
  0
ARC
  5
E3
330
1F
100
AcDbEntity
  8
LAY-1
  6
CONTINUOUS
 62
     3
100
AcDbCircle
 10
105.6274169979695
 20
89.99999999999963
 30
0.0
 40
12.50000000000001
100
AcDbArc
 50
89.99999999999973
 51
120.1875072711222
  0
LINE
  5
E4
330
1F
100
AcDbEntity
  8
LAY-1
  6
CONTINUOUS
 62
     3
100
AcDbLine
 10
74.99999999999949
 20
102.4999999999996
 30
0.0
 11
82.99999999999949
 21
102.4999999999996
 31
0.0
  0
LINE
  5
E5
330
1F
100
AcDbEntity
  8
LAY-1
  6
CONTINUOUS
 62
     3
100
AcDbLine
 10
105.6274169979695
 20
102.4999999999996
 30
0.0
 11
151.0000000000008
 21
102.4999999999996
 31
0.0
  0
LINE
  5
E6
330
1F
100
AcDbEntity
  8
LAY-1
  6
CONTINUOUS
 62
     3
100
AcDbLine
 10
150.9999999999995
 20
77.49999999999963
 30
0.0
 11
140.5908827988034
 21
77.49999999999963
 31
0.0
  0
ARC
  5
E7
330
1F
100
AcDbEntity
  8
LAY-1
  6
CONTINUOUS
 62
     3
100
AcDbCircle
 10
140.5908827988034
 20
75.49999999999963
 30
0.0
 40
2.0
100
AcDbArc
 50
90.00000000000001
 51
164.9999999999984
  0
LINE
  5
E8
330
1F
100
AcDbEntity
  8
LAY-1
  6
CONTINUOUS
 62
     3
100
AcDbLine
 10
135.6794551983922
 20
64.89770926788245
 30
0.0
 11
138.6590311462253
 21
76.01763809020471
 31
0.0
  0
ARC
  5
E9
330
1F
100
AcDbEntity
  8
LAY-1
  6
CONTINUOUS
 62
     3
100
AcDbCircle
 10
137.6113068509703
 20
64.38007117767737
 30
0.0
 40
2.0
100
AcDbArc
 50
164.9999999999984
 51
225.0000000000001
  0
ARC
  5
EA
330
1F
100
AcDbEntity
  8
LAY-1
  6
CONTINUOUS
 62
     3
100
AcDbCircle
 10
130.3507703481202
 20
62.39745154234882
 30
0.0
 40
2.0
100
AcDbArc
 50
315.0000000000002
 51
344.9999999999985
  0
LINE
  5
EB
330
1F
100
AcDbEntity
  8
LAY-1
  6
CONTINUOUS
 62
     1
100
AcDbLine
 10
132.1439212924564
 20
61.36217536193871
 30
0.0
 11
132.2826220006987
 21
61.87981345214459
 31
0.0
  0
LINE
  5
EC
330
1F
100
AcDbEntity
  8
LAY-1
  6
CONTINUOUS
 62
     1
100
AcDbLine
 10
131.7649839104902
 20
60.98323797997242
 30
0.0
 11
132.1439212924564
 21
61.36217536193871
 31
0.0
  0
ARC
  5
ED
330
1F
100
AcDbEntity
  8
LAY-1
  6
CONTINUOUS
 62
     3
100
AcDbCircle
 10
62.99999999999949
 20
68.68697036180416
 30
0.0
 40
6.000000000000004
100
AcDbArc
 50
102.528807709151
 51
179.9999999999998
  0
ARC
  5
EE
330
1F
100
AcDbEntity
  8
LAY-1
  6
CONTINUOUS
 62
     3
100
AcDbCircle
 10
72.17554063719626
 20
74.82355470664473
 30
0.0
 40
2.0
100
AcDbArc
 50
29.78641365141882
 51
102.528807709151
  0
LINE
  5
EF
330
1F
100
AcDbEntity
  8
LAY-1
  6
CONTINUOUS
 62
     3
100
AcDbLine
 10
71.74167972155885
 20
76.7759288270124
 30
0.0
 11
61.69841725308754
 21
74.54409272290789
 31
0.0
  0
ARC
  5
F0
330
1F
100
AcDbEntity
  8
LAY-1
  6
CONTINUOUS
 62
     3
100
AcDbCircle
 10
162.8693428407329
 20
126.7358291883679
 30
0.0
 40
102.5000000000001
100
AcDbArc
 50
209.7864136514233
 51
238.1236396196825
  0
LINE
  5
F1
330
1F
100
AcDbEntity
  8
LAY-1
  6
CONTINUOUS
 62
     3
100
AcDbLine
 10
136.1970932885974
 20
62.9658576153044
 30
0.0
 11
143.457629791448
 21
55.70532111245387
 31
0.0
  0
LINE
  5
F2
330
1F
100
AcDbEntity
  8
LAY-1
  6
CONTINUOUS
 62
     3
100
AcDbLine
 10
108.9193402549799
 20
38.13759432446997
 30
0.0
 11
132.47209069168
 21
61.69034476117002
 31
0.0
  0
POLYLINE
  5
F3
330
1F
100
AcDbEntity
  8
LAY-1
  6
CONTINUOUS
 62
     3
100
AcDb2dPolyline
 66
     1
 10
0.0
 20
0.0
 30
0.0
 70
   128
  0
VERTEX
  5
F4
330
F3
100
AcDbEntity
  8
LAY-1
  6
CONTINUOUS
 62
     3
100
AcDbVertex
100
AcDb2dVertex
 10
74.13999999999999
 20
78.00999999999999
 30
0.0
  0
VERTEX
  5
F5
330
F3
100
AcDbEntity
  8
LAY-1
  6
CONTINUOUS
 62
     3
100
AcDbVertex
100
AcDb2dVertex
 10
74.24879991046434
 20
78.18453389938657
 30
0.0
  0
VERTEX
  5
F6
330
F3
100
AcDbEntity
  8
LAY-1
  6
CONTINUOUS
 62
     3
100
AcDbVertex
100
AcDb2dVertex
 10
74.56096893386996
 20
78.67795840142803
 30
0.0
  0
VERTEX
  5
F7
330
F3
100
AcDbEntity
  8
LAY-1
  6
CONTINUOUS
 62
     3
100
AcDbVertex
100
AcDb2dVertex
 10
75.0551610082358
 20
79.44500771194697
 30
0.0
  0
VERTEX
  5
F8
330
F3
100
AcDbEntity
  8
LAY-1
  6
CONTINUOUS
 62
     3
100
AcDbVertex
100
AcDb2dVertex
 10
75.71003007158076
 20
80.44041603676601
 30
0.0
  0
VERTEX
  5
F9
330
F3
100
AcDbEntity
  8
LAY-1
  6
CONTINUOUS
 62
     3
100
AcDbVertex
100
AcDb2dVertex
 10
76.50423006192378
 20
81.61891758170773
 30
0.0
  0
VERTEX
  5
FA
330
F3
100
AcDbEntity
  8
LAY-1
  6
CONTINUOUS
 62
     3
100
AcDbVertex
100
AcDb2dVertex
 10
77.41641491728373
 20
82.93524655259472
 30
0.0
  0
VERTEX
  5
FB
330
F3
100
AcDbEntity
  8
LAY-1
  6
CONTINUOUS
 62
     3
100
AcDbVertex
100
AcDb2dVertex
 10
78.42523857567957
 20
84.34413715524961
 30
0.0
  0
VERTEX
  5
FC
330
F3
100
AcDbEntity
  8
LAY-1
  6
CONTINUOUS
 62
     3
100
AcDbVertex
100
AcDb2dVertex
 10
79.5093549751302
 20
85.80032359549497
 30
0.0
  0
VERTEX
  5
FD
330
F3
100
AcDbEntity
  8
LAY-1
  6
CONTINUOUS
 62
     3
100
AcDbVertex
100
AcDb2dVertex
 10
80.64741805365455
 20
87.25854007915345
 30
0.0
  0
VERTEX
  5
FE
330
F3
100
AcDbEntity
  8
LAY-1
  6
CONTINUOUS
 62
     3
100
AcDbVertex
100
AcDb2dVertex
 10
81.81808174927149
 20
88.67352081204756
 30
0.0
  0
VERTEX
  5
FF
330
F3
100
AcDbEntity
  8
LAY-1
  6
CONTINUOUS
 62
     3
100
AcDbVertex
100
AcDb2dVertex
 10
82.99999999999999
 20
89.99999999999999
 30
0.0
  0
VERTEX
  5
100
330
F3
100
AcDbEntity
  8
LAY-1
  6
CONTINUOUS
 62
     3
100
AcDbVertex
100
AcDb2dVertex
 10
84.4948011436522
 20
91.50188768531326
 30
0.0
  0
VERTEX
  5
101
330
F3
100
AcDbEntity
  8
LAY-1
  6
CONTINUOUS
 62
     3
100
AcDbVertex
100
AcDb2dVertex
 10
85.98731260990493
 20
92.78236610030942
 30
0.0
  0
VERTEX
  5
102
330
F3
100
AcDbEntity
  8
LAY-1
  6
CONTINUOUS
 62
     3
100
AcDbVertex
100
AcDb2dVertex
 10
87.49155330589035
 20
93.83620339849753
 30
0.0
  0
VERTEX
  5
103
330
F3
100
AcDbEntity
  8
LAY-1
  6
CONTINUOUS
 62
     3
100
AcDbVertex
100
AcDb2dVertex
 10
89.0215421387405
 20
94.65816773338663
 30
0.0
  0
VERTEX
  5
104
330
F3
100
AcDbEntity
  8
LAY-1
  6
CONTINUOUS
 62
     3
100
AcDbVertex
100
AcDb2dVertex
 10
90.59129801558745
 20
95.2430272584858
 30
0.0
  0
VERTEX
  5
105
330
F3
100
AcDbEntity
  8
LAY-1
  6
CONTINUOUS
 62
     3
100
AcDbVertex
100
AcDb2dVertex
 10
92.2148398435634
 20
95.58555012730415
 30
0.0
  0
VERTEX
  5
106
330
F3
100
AcDbEntity
  8
LAY-1
  6
CONTINUOUS
 62
     3
100
AcDbVertex
100
AcDb2dVertex
 10
93.9061865298003
 20
95.68050449335065
 30
0.0
  0
VERTEX
  5
107
330
F3
100
AcDbEntity
  8
LAY-1
  6
CONTINUOUS
 62
     3
100
AcDbVertex
100
AcDb2dVertex
 10
95.67935698143033
 20
95.52265851013442
 30
0.0
  0
VERTEX
  5
108
330
F3
100
AcDbEntity
  8
LAY-1
  6
CONTINUOUS
 62
     3
100
AcDbVertex
100
AcDb2dVertex
 10
97.54837010558556
 20
95.10678033116454
 30
0.0
  0
VERTEX
  5
109
330
F3
100
AcDbEntity
  8
LAY-1
  6
CONTINUOUS
 62
     3
100
AcDbVertex
100
AcDb2dVertex
 10
99.52724480939807
 20
94.42763810995004
 30
0.0
  0
VERTEX
  5
10A
330
F3
100
AcDbEntity
  8
LAY-1
  6
CONTINUOUS
 62
     3
100
AcDbVertex
100
AcDb2dVertex
 10
101.63
 20
93.47999999999998
 30
0.0
  0
VERTEX
  5
10B
330
F3
100
AcDbEntity
  8
LAY-1
  6
CONTINUOUS
 62
     3
100
AcDbVertex
100
AcDb2dVertex
 10
102.1355407697255
 20
93.22229359610466
 30
0.0
  0
VERTEX
  5
10C
330
F3
100
AcDbEntity
  8
LAY-1
  6
CONTINUOUS
 62
     3
100
AcDbVertex
100
AcDb2dVertex
 10
102.6388365376458
 20
92.95668244097587
 30
0.0
  0
VERTEX
  5
10D
330
F3
100
AcDbEntity
  8
LAY-1
  6
CONTINUOUS
 62
     3
100
AcDbVertex
100
AcDb2dVertex
 10
103.1302157000666
 20
92.690003450169
 30
0.0
  0
VERTEX
  5
10E
330
F3
100
AcDbEntity
  8
LAY-1
  6
CONTINUOUS
 62
     3
100
AcDbVertex
100
AcDb2dVertex
 10
103.6000066532934
 20
92.42909353923957
 30
0.0
  0
VERTEX
  5
10F
330
F3
100
AcDbEntity
  8
LAY-1
  6
CONTINUOUS
 62
     3
100
AcDbVertex
100
AcDb2dVertex
 10
104.0385377936319
 20
92.18078962374305
 30
0.0
  0
VERTEX
  5
110
330
F3
100
AcDbEntity
  8
LAY-1
  6
CONTINUOUS
 62
     3
100
AcDbVertex
100
AcDb2dVertex
 10
104.4361375173877
 20
91.95192861923485
 30
0.0
  0
VERTEX
  5
111
330
F3
100
AcDbEntity
  8
LAY-1
  6
CONTINUOUS
 62
     3
100
AcDbVertex
100
AcDb2dVertex
 10
104.7831342208662
 20
91.74934744127046
 30
0.0
  0
VERTEX
  5
112
330
F3
100
AcDbEntity
  8
LAY-1
  6
CONTINUOUS
 62
     3
100
AcDbVertex
100
AcDb2dVertex
 10
105.0698563003731
 20
91.57988300540532
 30
0.0
  0
VERTEX
  5
113
330
F3
100
AcDbEntity
  8
LAY-1
  6
CONTINUOUS
 62
     3
100
AcDbVertex
100
AcDb2dVertex
 10
105.286632152214
 20
91.45037222719489
 30
0.0
  0
VERTEX
  5
114
330
F3
100
AcDbEntity
  8
LAY-1
  6
CONTINUOUS
 62
     3
100
AcDbVertex
100
AcDb2dVertex
 10
105.4237901726944
 20
91.36765202219462
 30
0.0
  0
VERTEX
  5
115
330
F3
100
AcDbEntity
  8
LAY-1
  6
CONTINUOUS
 62
     3
100
AcDbVertex
100
AcDb2dVertex
 10
105.47165875812
 20
91.33855930595999
 30
0.0
  0
SEQEND
  5
116
330
F3
100
AcDbEntity
  8
LAY-1
  6
CONTINUOUS
 62
     3
  0
ARC
  5
117
330
1F
100
AcDbEntity
  8
LAY-1
  6
CONTINUOUS
 62
     3
100
AcDbCircle
 10
46.26417081163129
 20
10.1306571592674
 30
0.0
 40
100.5000000000001
100
AcDbArc
 50
31.87636038031698
 51
53.9047597236784
  0
LINE
  5
118
330
1F
100
AcDbEntity
  8
LAY-1
  6
CONTINUOUS
 62
     3
100
AcDbLine
 10
42.99999999999898
 20
118.0
 30
0.0
 11
43.99999999999898
 21
118.0
 31
0.0
  0
LINE
  5
119
330
1F
100
AcDbEntity
  8
LAY-1
  6
CONTINUOUS
 62
     3
100
AcDbLine
 10
43.99999999999898
 20
140.0
 30
0.0
 11
56.99999999999898
 21
140.0
 31
0.0
  0
LINE
  5
11A
330
1F
100
AcDbEntity
  8
LAY-1
  6
CONTINUOUS
 62
     3
100
AcDbLine
 10
42.99999999999898
 20
90.0
 30
0.0
 11
42.99999999999898
 21
118.0
 31
0.0
  0
LINE
  5
11B
330
1F
100
AcDbEntity
  8
LAY-1
  6
CONTINUOUS
 62
     3
100
AcDbLine
 10
42.99999999999898
 20
90.0
 30
0.0
 11
42.99999999999898
 21
62.0
 31
0.0
  0
LINE
  5
11C
330
1F
100
AcDbEntity
  8
LAY-1
  6
EXLTYPE2
 62
     1
100
AcDbLine
 10
60.99999999999898
 20
127.5
 30
0.0
 11
39.99999999999898
 21
127.5
 31
0.0
  0
LINE
  5
11D
330
1F
100
AcDbEntity
  8
LAY-1
  6
CONTINUOUS
 62
     3
100
AcDbLine
 10
42.99999999999898
 20
62.0
 30
0.0
 11
43.99999999999898
 21
62.0
 31
0.0
  0
LINE
  5
11E
330
1F
100
AcDbEntity
  8
LAY-1
  6
EXLTYPE2
 62
     1
100
AcDbLine
 10
60.99999999999898
 20
52.5
 30
0.0
 11
39.99999999999898
 21
52.5
 31
0.0
  0
LINE
  5
11F
330
1F
100
AcDbEntity
  8
LAY-1
  6
CONTINUOUS
 62
     3
100
AcDbLine
 10
43.99999999999898
 20
40.00000000000009
 30
0.0
 11
56.99999999999898
 21
40.00000000000009
 31
0.0
  0
LINE
  5
120
330
1F
100
AcDbEntity
  8
LAY-1
  6
CONTINUOUS
 62
     3
100
AcDbLine
 10
182.999999999999
 20
62.0
 30
0.0
 11
181.999999999999
 21
62.0
 31
0.0
  0
LINE
  5
121
330
1F
100
AcDbEntity
  8
LAY-1
  6
CONTINUOUS
 62
     3
100
AcDbLine
 10
181.999999999999
 20
40.0
 30
0.0
 11
168.999999999999
 21
40.0
 31
0.0
  0
LINE
  5
122
330
1F
100
AcDbEntity
  8
LAY-1
  6
CONTINUOUS
 62
     3
100
AcDbLine
 10
182.999999999999
 20
90.0
 30
0.0
 11
182.999999999999
 21
62.0
 31
0.0
  0
LINE
  5
123
330
1F
100
AcDbEntity
  8
LAY-1
  6
CONTINUOUS
 62
     3
100
AcDbLine
 10
182.999999999999
 20
90.0
 30
0.0
 11
182.999999999999
 21
118.0
 31
0.0
  0
LINE
  5
124
330
1F
100
AcDbEntity
  8
LAY-1
  6
EXLTYPE2
 62
     1
100
AcDbLine
 10
164.999999999999
 20
52.5
 30
0.0
 11
185.999999999999
 21
52.5
 31
0.0
  0
LINE
  5
125
330
1F
100
AcDbEntity
  8
LAY-1
  6
CONTINUOUS
 62
     3
100
AcDbLine
 10
182.999999999999
 20
118.0
 30
0.0
 11
181.999999999999
 21
118.0
 31
0.0
  0
LINE
  5
126
330
1F
100
AcDbEntity
  8
LAY-1
  6
EXLTYPE2
 62
     1
100
AcDbLine
 10
164.999999999999
 20
127.5
 30
0.0
 11
185.999999999999
 21
127.5
 31
0.0
  0
LINE
  5
127
330
1F
100
AcDbEntity
  8
LAY-1
  6
CONTINUOUS
 62
     3
100
AcDbLine
 10
181.999999999999
 20
139.9999999999999
 30
0.0
 11
168.999999999999
 21
139.9999999999999
 31
0.0
  0
ARC
  5
128
330
1F
100
AcDbEntity
  8
LAY-1
  6
CONTINUOUS
 62
     3
100
AcDbCircle
 10
162.999999999999
 20
111.3130296381952
 30
0.0
 40
6.000000000000004
100
AcDbArc
 50
282.5288077091515
 51
0.0
  0
LINE
  5
129
330
1F
100
AcDbEntity
  8
LAY-1
  6
CONTINUOUS
 62
     3
100
AcDbLine
 10
150.999999999999
 20
77.50000000000028
 30
0.0
 11
164.301582746911
 21
74.54409272290874
 31
0.0
  0
ARC
  5
12A
330
1F
100
AcDbEntity
  8
LAY-1
  6
CONTINUOUS
 62
     3
100
AcDbCircle
 10
162.999999999999
 20
68.68697036180504
 30
0.0
 40
6.000000000000004
100
AcDbArc
 50
0.0
 51
77.47119229084845
  0
LINE
  5
12B
330
1F
100
AcDbEntity
  8
LAY-1
  6
CONTINUOUS
 62
     3
100
AcDbLine
 10
150.999999999999
 20
102.5
 30
0.0
 11
164.3015827469088
 21
105.4559072770911
 31
0.0
  0
LINE
  5
12C
330
1F
100
AcDbEntity
  8
LAY-1
  6
CONTINUOUS
 62
     3
100
AcDbLine
 10
168.999999999999
 20
89.9999999999998
 30
0.0
 11
168.999999999999
 21
139.9999999999999
 31
0.0
  0
LINE
  5
12D
330
1F
100
AcDbEntity
  8
LAY-1
  6
CONTINUOUS
 62
     3
100
AcDbLine
 10
168.999999999999
 20
89.9999999999998
 30
0.0
 11
168.999999999999
 21
40.0
 31
0.0
  0
LINE
  5
12E
330
1F
100
AcDbEntity
  8
LAY-1
  6
CONTINUOUS
 62
     3
100
AcDbLine
 10
181.999999999999
 20
89.9999999999998
 30
0.0
 11
181.999999999999
 21
139.9999999999999
 31
0.0
  0
LINE
  5
12F
330
1F
100
AcDbEntity
  8
LAY-1
  6
CONTINUOUS
 62
     3
100
AcDbLine
 10
181.999999999999
 20
89.9999999999998
 30
0.0
 11
181.999999999999
 21
40.0
 31
0.0
  0
LINE
  5
130
330
1F
100
AcDbEntity
  8
LAY-1
  6
CONTINUOUS
 62
     3
100
AcDbLine
 10
56.99999999999898
 20
89.99999999999977
 30
0.0
 11
56.99999999999898
 21
140.0
 31
0.0
  0
LINE
  5
131
330
1F
100
AcDbEntity
  8
LAY-1
  6
CONTINUOUS
 62
     3
100
AcDbLine
 10
56.99999999999898
 20
89.99999999999977
 30
0.0
 11
56.99999999999898
 21
40.00000000000009
 31
0.0
  0
LINE
  5
132
330
1F
100
AcDbEntity
  8
LAY-1
  6
CONTINUOUS
 62
     3
100
AcDbLine
 10
43.99999999999898
 20
89.99999999999977
 30
0.0
 11
43.99999999999898
 21
140.0
 31
0.0
  0
LINE
  5
133
330
1F
100
AcDbEntity
  8
LAY-1
  6
CONTINUOUS
 62
     3
100
AcDbLine
 10
43.99999999999898
 20
89.99999999999977
 30
0.0
 11
43.99999999999898
 21
40.00000000000009
 31
0.0
  0
CIRCLE
  5
134
330
1F
100
AcDbEntity
  8
LAY-1
  6
CONTINUOUS
 62
     3
100
AcDbCircle
 10
318.51650429449
 20
63.483495705504
 30
0.0
 40
7.500000000000002
  0
CIRCLE
  5
135
330
1F
100
AcDbEntity
  8
LAY-1
  6
CONTINUOUS
 62
     3
100
AcDbCircle
 10
318.51650429449
 20
116.516504294496
 30
0.0
 40
7.500000000000004
  0
CIRCLE
  5
136
330
1F
100
AcDbEntity
  8
LAY-1
  6
EXLTYPE2
 62
     1
100
AcDbCircle
 10
292.0
 20
90.0
 30
0.0
 40
37.5
  0
CIRCLE
  5
137
330
1F
100
AcDbEntity
  8
LAY-1
  6
CONTINUOUS
 62
     3
100
AcDbCircle
 10
292.0
 20
90.0
 30
0.0
 40
50.0
  0
CIRCLE
  5
138
330
1F
100
AcDbEntity
  8
LAY-1
  6
CONTINUOUS
 62
     3
100
AcDbCircle
 10
292.0
 20
90.0
 30
0.0
 40
28.0
  0
CIRCLE
  5
139
330
1F
100
AcDbEntity
  8
LAY-1
  6
CONTINUOUS
 62
     3
100
AcDbCircle
 10
292.0
 20
90.0
 30
0.0
 40
10.0
  0
LINE
  5
13A
330
1F
100
AcDbEntity
  8
LAY-1
  6
EXLTYPE6
 62
     1
100
AcDbLine
 10
311.7989898732225
 20
109.7989898732242
 30
0.0
 11
326.4999999999991
 21
124.5000000000009
 31
0.0
  0
LINE
  5
13B
330
1F
100
AcDbEntity
  8
LAY-1
  6
EXLTYPE6
 62
     1
100
AcDbLine
 10
311.7989898732225
 20
70.2010101267758
 30
0.0
 11
326.4999999999991
 21
55.49999999999912
 31
0.0
  0
CIRCLE
  5
13C
330
1F
100
AcDbEntity
  8
LAY-1
  6
CONTINUOUS
 62
     3
100
AcDbCircle
 10
265.48349570551
 20
63.483495705504
 30
0.0
 40
7.500000000000002
  0
CIRCLE
  5
13D
330
1F
100
AcDbEntity
  8
LAY-1
  6
CONTINUOUS
 62
     3
100
AcDbCircle
 10
265.48349570551
 20
116.516504294496
 30
0.0
 40
7.500000000000004
  0
LINE
  5
13E
330
1F
100
AcDbEntity
  8
LAY-1
  6
EXLTYPE6
 62
     1
100
AcDbLine
 10
272.2010101267775
 20
109.7989898732242
 30
0.0
 11
257.5000000000009
 21
124.5000000000009
 31
0.0
  0
LINE
  5
13F
330
1F
100
AcDbEntity
  8
LAY-1
  6
EXLTYPE6
 62
     1
100
AcDbLine
 10
272.2010101267775
 20
70.2010101267758
 30
0.0
 11
257.5000000000008
 21
55.49999999999913
 31
0.0
  0
LINE
  5
140
330
1F
100
AcDbEntity
  8
LAY-1
  6
EXLTYPE2
 62
     1
100
AcDbLine
 10
239.0
 20
89.99999999999999
 30
0.0
 11
345.0
 21
90.0
 31
0.0
  0
LINE
  5
141
330
1F
100
AcDbEntity
  8
LAY-1
  6
EXLTYPE2
 62
     1
100
AcDbLine
 10
39.0
 20
89.99999999999977
 30
0.0
 11
188.0
 21
89.9999999999998
 31
0.0
  0
LINE
  5
142
330
1F
100
AcDbEntity
  8
LAY-1
  6
CONTINUOUS
 62
     3
100
AcDbLine
 10
144.0632006071683
 20
38.7347583639739
 30
0.0
 11
139.1642211215936
 21
43.63373784954855
 31
0.0
  0
ARC
  5
143
330
1F
100
AcDbEntity
  8
LAY-1
  6
CONTINUOUS
 62
     3
100
AcDbCircle
 10
142.9331900812555
 20
44.76374837543636
 30
0.0
 40
6.133974596213156
100
AcDbArc
 50
280.615752532092
 51
340.6157525324975
  0
LINE
  5
144
330
1F
100
AcDbEntity
  8
LAY-1
  6
CONTINUOUS
 62
     3
100
AcDbLine
 10
144.0632006071528
 20
48.53271733510771
 30
0.0
 11
148.9621800927248
 21
43.63373784953571
 31
0.0
  0
LINE
  5
145
330
1F
100
AcDbEntity
  8
LAY-1
  6
CONTINUOUS
 62
     3
100
AcDbLine
 10
139.9220958855165
 20
33.07790411448683
 30
0.0
 11
148.4073772597625
 21
41.56318548873279
 31
0.0
  0
LINE
  5
146
330
1F
100
AcDbEntity
  8
LAY-1
  6
CONTINUOUS
 62
     3
100
AcDbLine
 10
148.4073772597616
 20
41.56318548873377
 30
0.0
 11
148.9621800927248
 21
43.63373784953571
 31
0.0
  0
ARC
  5
147
330
1F
100
AcDbEntity
  8
LAY-1
  6
CONTINUOUS
 62
     3
100
AcDbCircle
 10
123.7094079009001
 20
49.2905920991248
 30
0.0
 40
22.92820323038741
100
AcDbArc
 50
315.0000000000001
 51
332.5879537738802
  0
LINE
  5
148
330
1F
100
AcDbEntity
  8
LAY-1
  6
CONTINUOUS
 62
     3
100
AcDbLine
 10
144.0632006071528
 20
48.53271733510771
 30
0.0
 11
134.2652416360241
 21
38.73475836397895
 31
0.0
  0
LINE
  5
149
330
1F
100
AcDbEntity
  8
LAY-1
  6
CONTINUOUS
 62
     3
100
AcDbLine
 10
145.4021734397132
 20
51.28590373004118
 30
0.0
 11
144.0632006071531
 21
48.53271733511109
 31
0.0
  0
LINE
  5
14A
330
1F
100
AcDbEntity
  8
LAY-1
  6
CONTINUOUS
 62
     3
100
AcDbLine
 10
145.4021734397132
 20
51.28590373004118
 30
0.0
 11
133.5581348548375
 21
39.44186514516552
 31
0.0
  0
LINE
  5
14B
330
1F
100
AcDbEntity
  8
LAY-1
  6
CONTINUOUS
 62
     3
100
AcDbLine
 10
142.2201929243725
 20
54.46788424538001
 30
0.0
 11
145.4021734397084
 21
51.28590373004408
 31
0.0
  0
LINE
  5
14C
330
1F
100
AcDbEntity
  8
LAY-1
  6
CONTINUOUS
 62
     3
100
AcDbLine
 10
130.3761543395001
 20
42.62384566050295
 30
0.0
 11
142.2201929243749
 21
54.46788424537788
 31
0.0
  0
LINE
  5
14D
330
1F
100
AcDbEntity
  8
LAY-1
  6
CONTINUOUS
 62
     3
100
AcDbLine
 10
134.2652416360255
 20
28.93679939283116
 30
0.0
 11
129.3662621504509
 21
33.8357788784059
 31
0.0
  0
ARC
  5
14E
330
1F
100
AcDbEntity
  8
LAY-1
  6
CONTINUOUS
 62
     3
100
AcDbCircle
 10
128.236251624563
 20
30.06680991874403
 30
0.0
 40
6.133974596213156
100
AcDbArc
 50
289.3842474675018
 51
349.3842474679075
  0
LINE
  5
14F
330
1F
100
AcDbEntity
  8
LAY-1
  6
CONTINUOUS
 62
     3
100
AcDbLine
 10
124.4672826648917
 20
28.93679939284677
 30
0.0
 11
129.3662621504636
 21
24.03781990727472
 31
0.0
  0
LINE
  5
150
330
1F
100
AcDbEntity
  8
LAY-1
  6
CONTINUOUS
 62
     3
100
AcDbLine
 10
139.9220958855126
 20
33.07790411448288
 30
0.0
 11
131.4368145112666
 21
24.59262274023696
 31
0.0
  0
LINE
  5
151
330
1F
100
AcDbEntity
  8
LAY-1
  6
CONTINUOUS
 62
     3
100
AcDbLine
 10
131.4368145112656
 20
24.59262274023793
 30
0.0
 11
129.3662621504636
 21
24.03781990727472
 31
0.0
  0
ARC
  5
152
330
1F
100
AcDbEntity
  8
LAY-1
  6
CONTINUOUS
 62
     3
100
AcDbCircle
 10
123.7094079008748
 20
49.29059209909945
 30
0.0
 40
22.92820323038741
100
AcDbArc
 50
297.4120462261193
 51
314.9999999999994
  0
LINE
  5
153
330
1F
100
AcDbEntity
  8
LAY-1
  6
CONTINUOUS
 62
     3
100
AcDbLine
 10
124.4672826648917
 20
28.93679939284677
 30
0.0
 11
134.2652416360205
 21
38.73475836397542
 31
0.0
  0
LINE
  5
154
330
1F
100
AcDbEntity
  8
LAY-1
  6
CONTINUOUS
 62
     3
100
AcDbLine
 10
121.7140962699582
 20
27.59782656028644
 30
0.0
 11
124.4672826648883
 21
28.93679939284648
 31
0.0
  0
LINE
  5
155
330
1F
100
AcDbEntity
  8
LAY-1
  6
CONTINUOUS
 62
     3
100
AcDbLine
 10
121.7140962699582
 20
27.59782656028644
 30
0.0
 11
133.558134854834
 21
39.44186514516201
 31
0.0
  0
LINE
  5
156
330
1F
100
AcDbEntity
  8
LAY-1
  6
CONTINUOUS
 62
     3
100
AcDbLine
 10
118.5321157546194
 20
30.77980707562712
 30
0.0
 11
121.7140962699553
 21
27.59782656029118
 31
0.0
  0
LINE
  5
157
330
1F
100
AcDbEntity
  8
LAY-1
  6
CONTINUOUS
 62
     3
100
AcDbLine
 10
130.3761543394966
 20
42.62384566049945
 30
0.0
 11
118.5321157546215
 21
30.77980707562476
 31
0.0
  0
LINE
  5
158
330
1F
100
AcDbEntity
  8
LAY-1
  6
EXLTYPE2
 62
     1
100
AcDbLine
 10
82.99999999999977
 20
90.00000000000017
 30
0.0
 11
141.4999999999997
 21
31.49999999999973
 31
0.0
  0
LINE
  5
159
330
1F
100
AcDbEntity
  8
LAY-1
  6
CONTINUOUS
 62
     3
100
AcDbLine
 10
74.9999999999995
 20
232.4999999999996
 30
0.0
 11
61.69841725308756
 21
235.4559072770912
 31
0.0
  0
ARC
  5
15A
330
1F
100
AcDbEntity
  8
LAY-1
  6
CONTINUOUS
 62
     3
100
AcDbCircle
 10
62.9999999999995
 20
241.3130296381949
 30
0.0
 40
6.000000000000004
100
AcDbArc
 50
180.0
 51
257.4711922908485
  0
ARC
  5
15B
330
1F
100
AcDbEntity
  8
LAY-1
  6
CONTINUOUS
 62
     3
100
AcDbCircle
 10
94.31370849898447
 20
239.4486503387762
 30
0.0
 40
10.0
100
AcDbArc
 50
239.8124927288778
 51
300.1875072711223
  0
ARC
  5
15C
330
1F
100
AcDbEntity
  8
LAY-1
  6
CONTINUOUS
 62
     3
100
AcDbCircle
 10
82.9999999999995
 20
219.9999999999996
 30
0.0
 40
12.49999999999998
100
AcDbArc
 50
59.81249272887737
 51
89.99999999999973
  0
ARC
  5
15D
330
1F
100
AcDbEntity
  8
LAY-1
  6
CONTINUOUS
 62
     3
100
AcDbCircle
 10
105.6274169979695
 20
219.9999999999996
 30
0.0
 40
12.50000000000001
100
AcDbArc
 50
89.99999999999973
 51
120.1875072711222
  0
LINE
  5
15E
330
1F
100
AcDbEntity
  8
LAY-1
  6
CONTINUOUS
 62
     3
100
AcDbLine
 10
74.9999999999995
 20
232.4999999999996
 30
0.0
 11
82.9999999999995
 21
232.4999999999996
 31
0.0
  0
LINE
  5
15F
330
1F
100
AcDbEntity
  8
LAY-1
  6
CONTINUOUS
 62
     3
100
AcDbLine
 10
105.6274169979695
 20
232.4999999999996
 30
0.0
 11
151.0000000000008
 21
232.4999999999996
 31
0.0
  0
LINE
  5
160
330
1F
100
AcDbEntity
  8
LAY-1
  6
CONTINUOUS
 62
     3
100
AcDbLine
 10
42.99999999999899
 20
248.0
 30
0.0
 11
43.99999999999899
 21
248.0
 31
0.0
  0
LINE
  5
161
330
1F
100
AcDbEntity
  8
LAY-1
  6
CONTINUOUS
 62
     3
100
AcDbLine
 10
43.99999999999899
 20
270.0
 30
0.0
 11
56.99999999999899
 21
270.0
 31
0.0
  0
LINE
  5
162
330
1F
100
AcDbEntity
  8
LAY-1
  6
CONTINUOUS
 62
     3
100
AcDbLine
 10
42.99999999999899
 20
220.0
 30
0.0
 11
42.99999999999899
 21
248.0
 31
0.0
  0
LINE
  5
163
330
1F
100
AcDbEntity
  8
LAY-1
  6
CONTINUOUS
 62
     3
100
AcDbLine
 10
42.99999999999899
 20
220.0
 30
0.0
 11
42.99999999999899
 21
192.0
 31
0.0
  0
LINE
  5
164
330
1F
100
AcDbEntity
  8
LAY-1
  6
EXLTYPE2
 62
     1
100
AcDbLine
 10
60.99999999999899
 20
257.5
 30
0.0
 11
39.99999999999899
 21
257.5
 31
0.0
  0
LINE
  5
165
330
1F
100
AcDbEntity
  8
LAY-1
  6
CONTINUOUS
 62
     3
100
AcDbLine
 10
42.99999999999899
 20
192.0
 30
0.0
 11
43.99999999999899
 21
192.0
 31
0.0
  0
LINE
  5
166
330
1F
100
AcDbEntity
  8
LAY-1
  6
EXLTYPE2
 62
     1
100
AcDbLine
 10
60.99999999999899
 20
182.5
 30
0.0
 11
39.99999999999899
 21
182.5
 31
0.0
  0
LINE
  5
167
330
1F
100
AcDbEntity
  8
LAY-1
  6
CONTINUOUS
 62
     3
100
AcDbLine
 10
43.99999999999899
 20
170.0000000000001
 30
0.0
 11
56.99999999999899
 21
170.0000000000001
 31
0.0
  0
LINE
  5
168
330
1F
100
AcDbEntity
  8
LAY-1
  6
CONTINUOUS
 62
     3
100
AcDbLine
 10
182.999999999999
 20
192.0
 30
0.0
 11
181.999999999999
 21
192.0
 31
0.0
  0
LINE
  5
169
330
1F
100
AcDbEntity
  8
LAY-1
  6
CONTINUOUS
 62
     3
100
AcDbLine
 10
181.999999999999
 20
170.0
 30
0.0
 11
168.999999999999
 21
170.0
 31
0.0
  0
LINE
  5
16A
330
1F
100
AcDbEntity
  8
LAY-1
  6
CONTINUOUS
 62
     3
100
AcDbLine
 10
182.999999999999
 20
220.0
 30
0.0
 11
182.999999999999
 21
192.0
 31
0.0
  0
LINE
  5
16B
330
1F
100
AcDbEntity
  8
LAY-1
  6
CONTINUOUS
 62
     3
100
AcDbLine
 10
182.999999999999
 20
220.0
 30
0.0
 11
182.999999999999
 21
248.0
 31
0.0
  0
LINE
  5
16C
330
1F
100
AcDbEntity
  8
LAY-1
  6
EXLTYPE2
 62
     1
100
AcDbLine
 10
164.999999999999
 20
182.5
 30
0.0
 11
185.999999999999
 21
182.5
 31
0.0
  0
LINE
  5
16D
330
1F
100
AcDbEntity
  8
LAY-1
  6
CONTINUOUS
 62
     3
100
AcDbLine
 10
182.999999999999
 20
248.0
 30
0.0
 11
181.999999999999
 21
248.0
 31
0.0
  0
LINE
  5
16E
330
1F
100
AcDbEntity
  8
LAY-1
  6
EXLTYPE2
 62
     1
100
AcDbLine
 10
164.999999999999
 20
257.5
 30
0.0
 11
185.999999999999
 21
257.5
 31
0.0
  0
LINE
  5
16F
330
1F
100
AcDbEntity
  8
LAY-1
  6
CONTINUOUS
 62
     3
100
AcDbLine
 10
181.999999999999
 20
269.9999999999999
 30
0.0
 11
168.999999999999
 21
269.9999999999999
 31
0.0
  0
ARC
  5
170
330
1F
100
AcDbEntity
  8
LAY-1
  6
CONTINUOUS
 62
     3
100
AcDbCircle
 10
162.999999999999
 20
241.3130296381952
 30
0.0
 40
6.000000000000004
100
AcDbArc
 50
282.5288077091515
 51
0.0
  0
LINE
  5
171
330
1F
100
AcDbEntity
  8
LAY-1
  6
CONTINUOUS
 62
     3
100
AcDbLine
 10
150.999999999999
 20
207.5000000000003
 30
0.0
 11
164.301582746911
 21
204.5440927229087
 31
0.0
  0
ARC
  5
172
330
1F
100
AcDbEntity
  8
LAY-1
  6
CONTINUOUS
 62
     3
100
AcDbCircle
 10
162.999999999999
 20
198.686970361805
 30
0.0
 40
6.000000000000004
100
AcDbArc
 50
0.0
 51
77.47119229084845
  0
LINE
  5
173
330
1F
100
AcDbEntity
  8
LAY-1
  6
CONTINUOUS
 62
     3
100
AcDbLine
 10
150.999999999999
 20
232.5
 30
0.0
 11
164.3015827469088
 21
235.4559072770911
 31
0.0
  0
LINE
  5
174
330
1F
100
AcDbEntity
  8
LAY-1
  6
CONTINUOUS
 62
     3
100
AcDbLine
 10
168.999999999999
 20
219.9999999999998
 30
0.0
 11
168.999999999999
 21
269.9999999999999
 31
0.0
  0
LINE
  5
175
330
1F
100
AcDbEntity
  8
LAY-1
  6
CONTINUOUS
 62
     3
100
AcDbLine
 10
168.999999999999
 20
219.9999999999998
 30
0.0
 11
168.999999999999
 21
170.0
 31
0.0
  0
LINE
  5
176
330
1F
100
AcDbEntity
  8
LAY-1
  6
CONTINUOUS
 62
     3
100
AcDbLine
 10
181.999999999999
 20
219.9999999999998
 30
0.0
 11
181.999999999999
 21
269.9999999999999
 31
0.0
  0
LINE
  5
177
330
1F
100
AcDbEntity
  8
LAY-1
  6
CONTINUOUS
 62
     3
100
AcDbLine
 10
181.999999999999
 20
219.9999999999998
 30
0.0
 11
181.999999999999
 21
170.0
 31
0.0
  0
LINE
  5
178
330
1F
100
AcDbEntity
  8
LAY-1
  6
CONTINUOUS
 62
     3
100
AcDbLine
 10
56.99999999999899
 20
219.9999999999998
 30
0.0
 11
56.99999999999899
 21
270.0
 31
0.0
  0
LINE
  5
179
330
1F
100
AcDbEntity
  8
LAY-1
  6
CONTINUOUS
 62
     3
100
AcDbLine
 10
56.99999999999899
 20
219.9999999999998
 30
0.0
 11
56.99999999999899
 21
170.0000000000001
 31
0.0
  0
LINE
  5
17A
330
1F
100
AcDbEntity
  8
LAY-1
  6
CONTINUOUS
 62
     3
100
AcDbLine
 10
43.99999999999899
 20
219.9999999999998
 30
0.0
 11
43.99999999999899
 21
270.0
 31
0.0
  0
LINE
  5
17B
330
1F
100
AcDbEntity
  8
LAY-1
  6
CONTINUOUS
 62
     3
100
AcDbLine
 10
43.99999999999899
 20
219.9999999999998
 30
0.0
 11
43.99999999999899
 21
170.0000000000001
 31
0.0
  0
LINE
  5
17C
330
1F
100
AcDbEntity
  8
LAY-1
  6
EXLTYPE2
 62
     1
100
AcDbLine
 10
39.00000000000001
 20
219.9999999999998
 30
0.0
 11
188.0
 21
219.9999999999998
 31
0.0
  0
LINE
  5
17D
330
1F
100
AcDbEntity
  8
LAY-1
  6
CONTINUOUS
 62
     3
100
AcDbLine
 10
105.6274169979695
 20
207.4999999999999
 30
0.0
 11
151.0000000000008
 21
207.5
 31
0.0
  0
ARC
  5
17E
330
1F
100
AcDbEntity
  8
LAY-1
  6
CONTINUOUS
 62
     3
100
AcDbCircle
 10
94.31370849898448
 20
200.5513496612234
 30
0.0
 40
10.0
100
AcDbArc
 50
59.8124927288777
 51
120.1875072711223
  0
ARC
  5
17F
330
1F
100
AcDbEntity
  8
LAY-1
  6
CONTINUOUS
 62
     3
100
AcDbCircle
 10
82.9999999999995
 20
219.9999999999999
 30
0.0
 40
12.49999999999998
100
AcDbArc
 50
270.0000000000003
 51
300.1875072711227
  0
ARC
  5
180
330
1F
100
AcDbEntity
  8
LAY-1
  6
CONTINUOUS
 62
     3
100
AcDbCircle
 10
105.6274169979695
 20
219.9999999999999
 30
0.0
 40
12.50000000000001
100
AcDbArc
 50
239.8124927288779
 51
270.0000000000002
  0
LINE
  5
181
330
1F
100
AcDbEntity
  8
LAY-1
  6
CONTINUOUS
 62
     3
100
AcDbLine
 10
74.99999999999952
 20
207.4999999999999
 30
0.0
 11
82.99999999999952
 21
207.4999999999999
 31
0.0
  0
LINE
  5
182
330
1F
100
AcDbEntity
  8
LAY-1
  6
CONTINUOUS
 62
     3
100
AcDbLine
 10
74.99999999999952
 20
207.4999999999999
 30
0.0
 11
61.69841725308756
 21
204.5440927229083
 31
0.0
  0
ARC
  5
183
330
1F
100
AcDbEntity
  8
LAY-1
  6
CONTINUOUS
 62
     3
100
AcDbCircle
 10
62.99999999999952
 20
198.6869703618046
 30
0.0
 40
6.000000000000004
100
AcDbArc
 50
102.5288077091515
 51
180.0
  0
LINE
  5
184
330
1F
100
AcDbEntity
  8
LAY-1
  6
EXLTYPE2
 62
     1
100
AcDbLine
 10
108.0
 20
240.0419999999998
 30
0.0
 11
102.0
 21
240.0419999999998
 31
0.0
  0
ARC
  5
185
330
1F
100
AcDbEntity
  8
LAY-1
  6
CONTINUOUS
 62
     3
100
AcDbCircle
 10
105.32692536283
 20
192.5864101537963
 30
0.0
 40
47.45558984620372
100
AcDbArc
 50
70.68524378443817
 51
119.8631317782683
  0
ARC
  5
186
330
1F
100
AcDbEntity
  8
LAY-1
  6
CONTINUOUS
 62
     3
100
AcDbCircle
 10
89.41922899155021
 20
220.291981604862
 30
0.0
 40
15.50792180500021
100
AcDbArc
 50
119.8631317782683
 51
128.0742958628728
  0
ARC
  5
187
330
1F
100
AcDbEntity
  8
LAY-1
  6
CONTINUOUS
 62
     3
100
AcDbCircle
 10
83.99952271179973
 20
224.0647256946585
 30
0.0
 40
8.314185787184302
100
AcDbArc
 50
0.0
 51
76.18497465875362
  0
ARC
  5
188
330
1F
100
AcDbEntity
  8
LAY-1
  6
CONTINUOUS
 62
     3
100
AcDbCircle
 10
104.6278942861683
 20
224.0647256946585
 30
0.0
 40
8.314185787184302
100
AcDbArc
 50
103.8150253412464
 51
180.0
  0
ELLIPSE
  5
189
330
1F
100
AcDbEntity
  8
LAY-1
  6
CONTINUOUS
 62
     3
100
AcDbEllipse
 10
121.89087296525
 20
220.0
 30
0.0
 11
-3.398394867633905E-15
 21
-18.5
 31
0.0
210
0.0
220
0.0
230
1.0
 40
0.7071067811864872
 41
2.312677188944599
 42
3.366065463150174
  0
POLYLINE
  5
18A
330
1F
100
AcDbEntity
  8
LAY-1
  6
CONTINUOUS
 62
     3
100
AcDb2dPolyline
 66
     1
 10
0.0
 20
0.0
 30
0.0
 70
   128
  0
VERTEX
  5
18B
330
18A
100
AcDbEntity
  8
LAY-1
  6
CONTINUOUS
 62
     3
100
AcDbVertex
100
AcDb2dVertex
 10
130.2057479107405
 20
232.4999999999996
 30
0.0
  0
VERTEX
  5
18C
330
18A
100
AcDbEntity
  8
LAY-1
  6
CONTINUOUS
 62
     3
100
AcDbVertex
100
AcDb2dVertex
 10
129.9441495158148
 20
232.8731121193559
 30
0.0
  0
VERTEX
  5
18D
330
18A
100
AcDbEntity
  8
LAY-1
  6
CONTINUOUS
 62
     3
100
AcDbVertex
100
AcDb2dVertex
 10
129.2197740758517
 20
233.755603303292
 30
0.0
  0
VERTEX
  5
18E
330
18A
100
AcDbEntity
  8
LAY-1
  6
CONTINUOUS
 62
     3
100
AcDbVertex
100
AcDb2dVertex
 10
128.4536004552629
 20
234.5498895300503
 30
0.0
  0
VERTEX
  5
18F
330
18A
100
AcDbEntity
  8
LAY-1
  6
CONTINUOUS
 62
     3
100
AcDbVertex
100
AcDb2dVertex
 10
127.6513946627013
 20
235.2517515640193
 30
0.0
  0
VERTEX
  5
190
330
18A
100
AcDbEntity
  8
LAY-1
  6
CONTINUOUS
 62
     3
100
AcDbVertex
100
AcDb2dVertex
 10
126.8190024218381
 20
235.8578666472802
 30
0.0
  0
VERTEX
  5
191
330
18A
100
AcDbEntity
  8
LAY-1
  6
CONTINUOUS
 62
     3
100
AcDbVertex
100
AcDb2dVertex
 10
125.9621788296238
 20
236.3658226847236
 30
0.0
  0
VERTEX
  5
192
330
18A
100
AcDbEntity
  8
LAY-1
  6
CONTINUOUS
 62
     3
100
AcDbVertex
100
AcDb2dVertex
 10
125.086404702111
 20
236.7740699840182
 30
0.0
  0
VERTEX
  5
193
330
18A
100
AcDbEntity
  8
LAY-1
  6
CONTINUOUS
 62
     3
100
AcDbVertex
100
AcDb2dVertex
 10
124.1967213757868
 20
237.0817955170838
 30
0.0
  0
VERTEX
  5
194
330
18A
100
AcDbEntity
  8
LAY-1
  6
CONTINUOUS
 62
     3
100
AcDbVertex
100
AcDb2dVertex
 10
123.2976285626454
 20
237.2887226351544
 30
0.0
  0
VERTEX
  5
195
330
18A
100
AcDbEntity
  8
LAY-1
  6
CONTINUOUS
 62
     3
100
AcDbVertex
100
AcDb2dVertex
 10
122.3930894038695
 20
237.3948675961979
 30
0.0
  0
VERTEX
  5
196
330
18A
100
AcDbEntity
  8
LAY-1
  6
CONTINUOUS
 62
     3
100
AcDbVertex
100
AcDb2dVertex
 10
121.0234081555179
 20
237.4030949386473
 30
0.0
  0
SEQEND
  5
197
330
18A
100
AcDbEntity
  8
LAY-1
  6
CONTINUOUS
 62
     3
  0
LINE
  5
198
330
1F
100
AcDbEntity
  8
LAY-1
  6
CONTINUOUS
 62
     3
100
AcDbLine
 10
121.89087296525
 20
238.5
 30
0.0
 11
130.3761543395
 21
238.5
 31
0.0
  0
ELLIPSE
  5
199
330
1F
100
AcDbEntity
  8
LAY-1
  6
CONTINUOUS
 62
     3
100
AcDbEllipse
 10
130.3761543395
 20
220.0
 30
0.0
 11
-3.398394867633905E-15
 21
-18.5
 31
0.0
210
0.0
220
0.0
230
1.0
 40
0.7071067811864856
 41
2.312677188944599
 42
3.141592653589793
  0
ELLIPSE
  5
19A
330
1F
100
AcDbEntity
  8
LAY-1
  6
CONTINUOUS
 62
     3
100
AcDbEllipse
 10
133.558134854835
 20
220.0
 30
0.0
 11
-3.076925082857725E-15
 21
-16.75
 31
0.0
210
0.0
220
0.0
230
1.0
 40
0.7071067811865668
 41
2.413235043405485
 42
2.863132314717221
  0
ELLIPSE
  5
19B
330
1F
100
AcDbEntity
  8
LAY-1
  6
CONTINUOUS
 62
     3
100
AcDbEllipse
 10
121.89087296525
 20
219.9999999999996
 30
0.0
 11
1.132798289211302E-15
 21
18.5
 31
0.0
210
0.0
220
0.0
230
1.0
 40
0.7071067811864872
 41
2.917119844029413
 42
3.970508118234987
  0
POLYLINE
  5
19C
330
1F
100
AcDbEntity
  8
LAY-1
  6
CONTINUOUS
 62
     3
100
AcDb2dPolyline
 66
     1
 10
0.0
 20
0.0
 30
0.0
 70
   128
  0
VERTEX
  5
19D
330
19C
100
AcDbEntity
  8
LAY-1
  6
CONTINUOUS
 62
     3
100
AcDbVertex
100
AcDb2dVertex
 10
130.2057479107405
 20
207.5
 30
0.0
  0
VERTEX
  5
19E
330
19C
100
AcDbEntity
  8
LAY-1
  6
CONTINUOUS
 62
     3
100
AcDbVertex
100
AcDb2dVertex
 10
129.9441495158148
 20
207.1268878806437
 30
0.0
  0
VERTEX
  5
19F
330
19C
100
AcDbEntity
  8
LAY-1
  6
CONTINUOUS
 62
     3
100
AcDbVertex
100
AcDb2dVertex
 10
129.2197740758518
 20
206.2443966967076
 30
0.0
  0
VERTEX
  5
1A0
330
19C
100
AcDbEntity
  8
LAY-1
  6
CONTINUOUS
 62
     3
100
AcDbVertex
100
AcDb2dVertex
 10
128.4536004552629
 20
205.4501104699494
 30
0.0
  0
VERTEX
  5
1A1
330
19C
100
AcDbEntity
  8
LAY-1
  6
CONTINUOUS
 62
     3
100
AcDbVertex
100
AcDb2dVertex
 10
127.6513946627013
 20
204.7482484359803
 30
0.0
  0
VERTEX
  5
1A2
330
19C
100
AcDbEntity
  8
LAY-1
  6
CONTINUOUS
 62
     3
100
AcDbVertex
100
AcDb2dVertex
 10
126.8190024218381
 20
204.1421333527194
 30
0.0
  0
VERTEX
  5
1A3
330
19C
100
AcDbEntity
  8
LAY-1
  6
CONTINUOUS
 62
     3
100
AcDbVertex
100
AcDb2dVertex
 10
125.9621788296239
 20
203.634177315276
 30
0.0
  0
VERTEX
  5
1A4
330
19C
100
AcDbEntity
  8
LAY-1
  6
CONTINUOUS
 62
     3
100
AcDbVertex
100
AcDb2dVertex
 10
125.086404702111
 20
203.2259300159814
 30
0.0
  0
VERTEX
  5
1A5
330
19C
100
AcDbEntity
  8
LAY-1
  6
CONTINUOUS
 62
     3
100
AcDbVertex
100
AcDb2dVertex
 10
124.1967213757868
 20
202.9182044829158
 30
0.0
  0
VERTEX
  5
1A6
330
19C
100
AcDbEntity
  8
LAY-1
  6
CONTINUOUS
 62
     3
100
AcDbVertex
100
AcDb2dVertex
 10
123.2976285626455
 20
202.7112773648452
 30
0.0
  0
VERTEX
  5
1A7
330
19C
100
AcDbEntity
  8
LAY-1
  6
CONTINUOUS
 62
     3
100
AcDbVertex
100
AcDb2dVertex
 10
122.3930894038695
 20
202.6051324038017
 30
0.0
  0
VERTEX
  5
1A8
330
19C
100
AcDbEntity
  8
LAY-1
  6
CONTINUOUS
 62
     3
100
AcDbVertex
100
AcDb2dVertex
 10
121.0234081555179
 20
202.5969050613523
 30
0.0
  0
SEQEND
  5
1A9
330
19C
100
AcDbEntity
  8
LAY-1
  6
CONTINUOUS
 62
     3
  0
LINE
  5
1AA
330
1F
100
AcDbEntity
  8
LAY-1
  6
CONTINUOUS
 62
     3
100
AcDbLine
 10
121.89087296525
 20
201.4999999999996
 30
0.0
 11
130.3761543395
 21
201.4999999999996
 31
0.0
  0
ELLIPSE
  5
1AB
330
1F
100
AcDbEntity
  8
LAY-1
  6
CONTINUOUS
 62
     3
100
AcDbEllipse
 10
130.3761543395
 20
219.9999999999996
 30
0.0
 11
1.132798289211302E-15
 21
18.5
 31
0.0
210
0.0
220
0.0
230
1.0
 40
0.7071067811864856
 41
3.141592653589797
 42
3.970508118234987
  0
ELLIPSE
  5
1AC
330
1F
100
AcDbEntity
  8
LAY-1
  6
CONTINUOUS
 62
     3
100
AcDbEllipse
 10
133.558134854835
 20
219.9999999999996
 30
0.0
 11
1.025641694285908E-15
 21
16.75
 31
0.0
210
0.0
220
0.0
230
1.0
 40
0.7071067811865668
 41
3.420052992462367
 42
3.869950263774101
  0
ARC
  5
1AD
330
1F
100
AcDbEntity
  8
LAY-1
  6
CONTINUOUS
 62
     3
100
AcDbCircle
 10
105.32692536283
 20
247.4135898462033
 30
0.0
 40
47.45558984620372
100
AcDbArc
 50
240.1368682217318
 51
289.3147562155618
  0
ARC
  5
1AE
330
1F
100
AcDbEntity
  8
LAY-1
  6
CONTINUOUS
 62
     3
100
AcDbCircle
 10
104.6278942861683
 20
215.935274305341
 30
0.0
 40
8.314185787184302
100
AcDbArc
 50
180.0
 51
256.1849746587536
  0
ARC
  5
1AF
330
1F
100
AcDbEntity
  8
LAY-1
  6
CONTINUOUS
 62
     3
100
AcDbCircle
 10
83.99952271179973
 20
215.935274305341
 30
0.0
 40
8.314185787184302
100
AcDbArc
 50
283.8150253412464
 51
0.0
  0
ARC
  5
1B0
330
1F
100
AcDbEntity
  8
LAY-1
  6
CONTINUOUS
 62
     3
100
AcDbCircle
 10
89.41922899155021
 20
219.7080183951375
 30
0.0
 40
15.50792180500021
100
AcDbArc
 50
231.9257041371272
 51
240.1368682217318
  0
LINE
  5
1B1
330
1F
100
AcDbEntity
  8
LAY-1
  6
EXLTYPE2
 62
     1
100
AcDbLine
 10
292.0
 20
143.0
 30
0.0
 11
292.0
 21
21.0
 31
0.0
  0
LINE
  5
1B2
330
1F
100
AcDbEntity
  8
LAY-1
  6
EXLTYPE2
 62
     1
100
AcDbLine
 10
304.0
 20
36.0
 30
0.0
 11
304.0
 21
30.0
 31
0.0
  0
ELLIPSE
  5
1B3
330
1F
100
AcDbEntity
  8
LAY-1
  6
CONTINUOUS
 62
     3
100
AcDbEllipse
 10
292.0
 20
33.077904114495
 30
0.0
 11
12.0
 21
0.0
 31
0.0
210
0.0
220
0.0
230
1.0
 40
0.7071067811879997
 41
2.106118322071179
 42
7.318659638698201
  0
LINE
  5
1B4
330
1F
100
AcDbEntity
  8
LAY-1
  6
CONTINUOUS
 62
     3
100
AcDbLine
 10
280.0
 20
38.734758363974
 30
0.0
 11
280.0
 21
28.93679939283102
 31
0.0
  0
LINE
  5
1B5
330
1F
100
AcDbEntity
  8
LAY-1
  6
CONTINUOUS
 62
     3
100
AcDbLine
 10
280.0
 20
28.936799392831
 30
0.0
 11
282.4564230829611
 21
27.93396886855826
 31
0.0
  0
LINE
  5
1B6
330
1F
100
AcDbEntity
  8
LAY-1
  6
CONTINUOUS
 62
     3
100
AcDbLine
 10
290.4717801473438
 20
24.66171304957348
 30
0.0
 11
292.0
 21
24.037819907275
 31
0.0
  0
LINE
  5
1B7
330
1F
100
AcDbEntity
  8
LAY-1
  6
CONTINUOUS
 62
     3
100
AcDbLine
 10
280.0
 20
38.734758363974
 30
0.0
 11
284.4889738674138
 21
40.56737427128104
 31
0.0
  0
LINE
  5
1B8
330
1F
100
AcDbEntity
  8
LAY-1
  6
CONTINUOUS
 62
     3
100
AcDbLine
 10
280.0
 20
38.734758363974
 30
0.0
 11
280.0
 21
41.46135560195361
 31
0.0
  0
ELLIPSE
  5
1B9
330
1F
100
AcDbEntity
  8
LAY-1
  6
CONTINUOUS
 62
     3
100
AcDbEllipse
 10
292.0
 20
39.441865145164
 30
0.0
 11
16.75
 21
-4.102566777143633E-15
 31
0.0
210
0.0
220
0.0
230
1.0
 40
0.7071067811866865
 41
2.865669193064355
 42
3.913734641660076
  0
ELLIPSE
  5
1BA
330
1F
100
AcDbEntity
  8
LAY-1
  6
CONTINUOUS
 62
     3
100
AcDbEllipse
 10
292.0
 20
38.734758363977
 30
0.0
 11
13.85599999999999
 21
-3.393741209797144E-15
 31
0.0
210
0.0
220
0.0
230
1.0
 40
0.7071275238978062
 41
2.826926956298717
 42
3.665140617892878
  0
LINE
  5
1BB
330
1F
100
AcDbEntity
  8
LAY-1
  6
CONTINUOUS
 62
     3
100
AcDbLine
 10
304.0
 20
38.73475836397401
 30
0.0
 11
299.5110261325862
 21
40.56737427128104
 31
0.0
  0
LINE
  5
1BC
330
1F
100
AcDbEntity
  8
LAY-1
  6
CONTINUOUS
 62
     3
100
AcDbLine
 10
304.0
 20
38.73475836397401
 30
0.0
 11
304.0
 21
41.46135560195361
 31
0.0
  0
LINE
  5
1BD
330
1F
100
AcDbEntity
  8
LAY-1
  6
CONTINUOUS
 62
     3
100
AcDbLine
 10
304.0
 20
38.73475836397401
 30
0.0
 11
304.0
 21
28.93679939283102
 31
0.0
  0
LINE
  5
1BE
330
1F
100
AcDbEntity
  8
LAY-1
  6
CONTINUOUS
 62
     3
100
AcDbLine
 10
304.0
 20
28.93679939283101
 30
0.0
 11
301.5435769170389
 21
27.93396886855825
 31
0.0
  0
LINE
  5
1BF
330
1F
100
AcDbEntity
  8
LAY-1
  6
CONTINUOUS
 62
     3
100
AcDbLine
 10
293.5282198526561
 20
24.66171304957348
 30
0.0
 11
291.9999999999999
 21
24.03781990727501
 31
0.0
  0
ELLIPSE
  5
1C0
330
1F
100
AcDbEntity
  8
LAY-1
  6
CONTINUOUS
 62
     3
100
AcDbEllipse
 10
292.0
 20
39.441865145164
 30
0.0
 11
16.75
 21
-4.102566777143633E-15
 31
0.0
210
0.0
220
0.0
230
1.0
 40
0.7071067811866865
 41
-0.7721419880702831
 42
0.2759234605254399
  0
ELLIPSE
  5
1C1
330
1F
100
AcDbEntity
  8
LAY-1
  6
CONTINUOUS
 62
     3
100
AcDbEllipse
 10
292.0
 20
38.73475836397699
 30
0.0
 11
13.856
 21
-3.393741209797144E-15
 31
0.0
210
0.0
220
0.0
230
1.0
 40
0.7071275238978061
 41
-0.5235479643030839
 42
0.3146656972910774
  0
LINE
  5
1C2
330
1F
100
AcDbEntity
  8
LAY-1
  6
CONTINUOUS
 62
     3
100
AcDbLine
 10
275.25
 20
39.441865145164
 30
0.0
 11
275.25
 21
42.8890936194176
 31
0.0
  0
LINE
  5
1C3
330
1F
100
AcDbEntity
  8
LAY-1
  6
CONTINUOUS
 62
     3
100
AcDbLine
 10
308.75
 20
39.441865145164
 30
0.0
 11
308.75
 21
42.88909361941759
 31
0.0
  0
LINE
  5
1C4
330
1F
100
AcDbEntity
  8
LAY-1
  6
EXLTYPE2
 62
     1
100
AcDbLine
 10
309.0
 20
33.07790411449498
 30
0.0
 11
275.0
 21
33.07790411449498
 31
0.0
  0
ELLIPSE
  5
1C5
330
1F
100
AcDbEntity
  8
LAY-1
  6
CONTINUOUS
 62
     3
100
AcDbEllipse
 10
292.0
 20
42.623845660503
 30
0.0
 11
18.5
 21
-4.531193156845207E-15
 31
0.0
210
0.0
220
0.0
230
1.0
 40
0.7071067811865406
 41
3.072212604773578
 42
3.656112728614314
  0
ELLIPSE
  5
1C6
330
1F
100
AcDbEntity
  8
LAY-1
  6
CONTINUOUS
 62
     3
100
AcDbEllipse
 10
292.0
 20
42.62384566050301
 30
0.0
 11
18.5
 21
-4.531193156845207E-15
 31
0.0
210
0.0
220
0.0
230
1.0
 40
0.7071067811865406
 41
-0.5145200750245209
 42
0.0693800488162153
  0
TEXT
  5
1C8
330
1F
100
AcDbEntity
  8
LAY-1
  6
CONTINUOUS
 62
     3
100
AcDbText
 10
257.0
 20
238.5625
 30
0.0
 40
2.733242134062928
  1
ＳＴＡＩＮＬＥＳＳ　ＳＴＥＥＬ
  7
EXCADTTF1
 72
     5
 11
317.0
 21
238.5625
 31
0.0
100
AcDbText
  0
TEXT
  5
1C9
330
1F
100
AcDbEntity
  8
LAY-1
  6
CONTINUOUS
 62
     3
100
AcDbText
 10
257.0
 20
230.5625
 30
0.0
 40
2.733242134062928
  1
Ｙ　ＴＹＰＥ　ＳＴＲＡＩＮＥＲ
  7
EXCADTTF1
 72
     5
 11
317.0
 21
230.5625
 31
0.0
100
AcDbText
  0
TEXT
  5
1CA
330
1F
100
AcDbEntity
  8
LAY-1
  6
CONTINUOUS
 62
     3
100
AcDbText
 10
257.0
 20
222.5625
 30
0.0
 40
2.733242134062928
  1
１０ＦＹＬ－１４Ａ
  7
EXCADTTF1
 72
     5
 11
293.0
 21
222.5625
 31
0.0
100
AcDbText
  0
TEXT
  5
1CB
330
1F
100
AcDbEntity
  8
LAY-1
  6
CONTINUOUS
 62
     3
100
AcDbText
 10
257.0
 20
214.5625
 30
0.0
 40
2.733242134062928
  1
１０Ｋ－２０Ａ
  7
EXCADTTF1
 72
     5
 11
285.0
 21
214.5625
 31
0.0
100
AcDbText
  0
ENDSEC
  0
SECTION
  2
OBJECTS
  0
DICTIONARY
  5
C
330
0
100
AcDbDictionary
  3
ACAD_GROUP
350
D
  3
ACAD_LAYOUT
350
1A
  3
ACAD_MATERIAL
350
43
  3
ACAD_MLEADERSTYLE
350
6B
  3
ACAD_MLINESTYLE
350
17
  3
ACAD_PLOTSETTINGS
350
19
  3
ACAD_SCALELIST
350
47
  3
ACAD_VISUALSTYLE
350
2A
  3
ACDBHEADERROUNDTRIPXREC
350
1CC
  3
ACDBVARIABLEDICTIONARY
350
1ED
  0
DICTIONARY
  5
1F6
330
8
100
AcDbDictionary
280
     1
  3
ACAD_XREC_ROUNDTRIP
360
1F7
  0
DICTIONARY
  5
D
102
{ACAD_REACTORS
330
C
102
}
330
C
100
AcDbDictionary
  0
DICTIONARY
  5
1A
102
{ACAD_REACTORS
330
C
102
}
330
C
100
AcDbDictionary
  0
DICTIONARY
  5
43
102
{ACAD_REACTORS
330
C
102
}
330
C
100
AcDbDictionary
  3
BYBLOCK
350
45
  3
BYLAYER
350
44
  3
GLOBAL
350
46
  0
DICTIONARY
  5
6B
102
{ACAD_REACTORS
330
C
102
}
330
C
100
AcDbDictionary
  3
STANDARD
350
6C
  0
DICTIONARY
  5
17
102
{ACAD_REACTORS
330
C
102
}
330
C
100
AcDbDictionary
  3
STANDARD
350
18
  0
DICTIONARY
  5
19
102
{ACAD_REACTORS
330
C
102
}
330
C
100
AcDbDictionary
  0
DICTIONARY
  5
47
102
{ACAD_REACTORS
330
C
102
}
330
C
100
AcDbDictionary
  3
A0
350
48
  3
A1
350
49
  3
A2
350
4A
  3
A3
350
4B
  3
A4
350
4C
  3
A5
350
4D
  3
A6
350
4E
  3
A7
350
4F
  3
A8
350
50
  3
A9
350
51
  3
B0
350
52
  3
B1
350
53
  3
B2
350
54
  3
B3
350
55
  3
B4
350
56
  3
B5
350
57
  3
B6
350
58
  3
B7
350
59
  3
B8
350
5A
  3
B9
350
5B
  3
C0
350
5C
  3
C1
350
5D
  3
C2
350
5E
  3
C3
350
5F
  3
C4
350
60
  3
C5
350
61
  3
C6
350
62
  3
C7
350
63
  3
C8
350
64
  3
C9
350
65
  3
D0
350
66
  3
D1
350
67
  3
D2
350
68
  0
DICTIONARY
  5
2A
102
{ACAD_REACTORS
330
C
102
}
330
C
100
AcDbDictionary
  3
2DWIREFRAME
350
2F
  3
BASIC
350
32
  3
BRIGHTEN
350
36
  3
COLORCHANGE
350
3A
  3
CONCEPTUAL
350
34
  3
DIM
350
35
  3
EDGECOLOROFF
350
3D
  3
FACEPATTERN
350
39
  3
FLAT
350
2B
  3
FLATWITHEDGES
350
2C
  3
GOURAUD
350
2D
  3
GOURAUDWITHEDGES
350
2E
  3
HIDDEN
350
31
  3
JITTEROFF
350
3B
  3
LINEPATTERN
350
38
  3
OVERHANGOFF
350
3C
  3
REALISTIC
350
33
  3
SHADED
350
42
  3
SHADED_WITH_EDGES
350
41
  3
SHADES_OF_GRAY
350
3E
  3
SKETCHY
350
3F
  3
THICKEN
350
37
  3
WIREFRAME
350
30
  3
X-RAY
350
40
  0
DICTIONARY
  5
1CC
102
{ACAD_REACTORS
330
C
102
}
330
C
100
AcDbDictionary
  3
CEPSNID
350
1D6
  3
CEPSNTYPE
350
1D5
  3
DIMSTYLEDATA
350
1EC
  3
FINGERPRINTGUID
350
1D7
  3
HYPERLINKBASE
350
1CF
  3
INSUNITS
350
1D4
  3
LAYOUTDICT
350
1D1
  3
LWETCUNION
350
1D3
  3
PLOTSETDICT
350
1D2
  3
PSVPSCALE
350
1D9
  3
PUCSBASE
350
1DC
  3
PUCSORGBACK
350
1E2
  3
PUCSORGBOTTOM
350
1DE
  3
PUCSORGFRONT
350
1E1
  3
PUCSORGLEFT
350
1DF
  3
PUCSORGRIGHT
350
1E0
  3
PUCSORGTOP
350
1DD
  3
PUCSORTHOREF
350
1DA
  3
PUCSORTHOVIEW
350
1DB
  3
STYLESHEET
350
1D0
  3
TSTACKALIGN
350
1CD
  3
TSTACKSIZE
350
1CE
  3
UCSBASE
350
1E5
  3
UCSORGBACK
350
1EB
  3
UCSORGBOTTOM
350
1E7
  3
UCSORGFRONT
350
1EA
  3
UCSORGLEFT
350
1E8
  3
UCSORGRIGHT
350
1E9
  3
UCSORGTOP
350
1E6
  3
UCSORTHOREF
350
1E3
  3
UCSORTHOVIEW
350
1E4
  3
VERSIONGUID
350
1D8
  0
DICTIONARY
  5
1ED
102
{ACAD_REACTORS
330
C
102
}
330
C
100
AcDbDictionary
  3
CANNOSCALE
350
1F8
  3
CMLEADERSTYLE
350
1EF
  3
CTABLESTYLE
350
1EE
  3
DIMASSOC
350
1F4
  3
HIDETEXT
350
1F5
  3
MSLTSCALE
350
1F9
  3
PSOLHEIGHT
350
1F1
  3
PSOLWIDTH
350
1F0
  0
XRECORD
  5
1F7
102
{ACAD_REACTORS
330
1F6
102
}
330
1F6
100
AcDbXrecord
102
VTR_0.000_0.000_1.000_1.000_VISUALSTYLE
340
2F
102
VTR_0.000_0.000_1.000_1.000_GRIDDISPLAY
 70
     3
102
VTR_0.000_0.000_1.000_1.000_GRIDMAJOR
 70
     5
102
VTR_0.000_0.000_1.000_1.000_DEFAULTLIGHTING
280
     1
102
VTR_0.000_0.000_1.000_1.000_DEFAULTLIGHTINGTYPE
 70
     1
102
VTR_0.000_0.000_1.000_1.000_BRIGHTNESS
141
0.0
102
VTR_0.000_0.000_1.000_1.000_CONTRAST
142
0.0
  0
MATERIAL
  5
45
102
{ACAD_REACTORS
330
43
102
}
102
{ACAD_XDICTIONARY
360
1FC
102
}
330
43
100
AcDbMaterial
  1
BYBLOCK
  0
MATERIAL
  5
44
102
{ACAD_REACTORS
330
43
102
}
102
{ACAD_XDICTIONARY
360
1FA
102
}
330
43
100
AcDbMaterial
  1
BYLAYER
  0
MATERIAL
  5
46
102
{ACAD_REACTORS
330
43
102
}
102
{ACAD_XDICTIONARY
360
1FE
102
}
330
43
100
AcDbMaterial
  1
GLOBAL
  0
ACAD_PROXY_OBJECT
  5
6C
102
{ACAD_REACTORS
330
6B
102
}
330
6B
100
AcDbProxyObject
 90
      499
 91
      505
 93
      610
310
40901902A4063FBFFFFFE0000000000000020400000000000020404214DD185B99185C990000000000000104090141901A00000000000004100000000000000041025764000000000000039000
340
14
340
0
340
11
340
0
 94
        0
1001
ACAD_MLEADERVER
1070
     2
  0
MLINESTYLE
  5
18
102
{ACAD_REACTORS
330
17
102
}
330
17
100
AcDbMlineStyle
  2
Standard
 70
     0
  3

 62
   256
 51
90.0
 52
90.0
 71
     2
 49
0.5
 62
   256
  6
BYLAYER
 49
-0.5
 62
   256
  6
BYLAYER
  0
ACAD_PROXY_OBJECT
  5
48
102
{ACAD_REACTORS
330
47
102
}
330
47
100
AcDbProxyObject
 90
      499
 91
      503
 93
       41
310
903313A31580
  0
ACAD_PROXY_OBJECT
  5
49
102
{ACAD_REACTORS
330
47
102
}
330
47
100
AcDbProxyObject
 90
      499
 91
      503
 93
      105
310
903313A324000000000000004000
  0
ACAD_PROXY_OBJECT
  5
4A
102
{ACAD_REACTORS
330
47
102
}
330
47
100
AcDbProxyObject
 90
      499
 91
      503
 93
      105
310
903313A344000000000000104000
  0
ACAD_PROXY_OBJECT
  5
4B
102
{ACAD_REACTORS
330
47
102
}
330
47
100
AcDbProxyObject
 90
      499
 91
      503
 93
      105
310
903313A354000000000000144000
  0
ACAD_PROXY_OBJECT
  5
4C
102
{ACAD_REACTORS
330
47
102
}
330
47
100
AcDbProxyObject
 90
      499
 91
      503
 93
      105
310
903313A384000000000000204000
  0
ACAD_PROXY_OBJECT
  5
4D
102
{ACAD_REACTORS
330
47
102
}
330
47
100
AcDbProxyObject
 90
      499
 91
      503
 93
      113
310
904313A31304000000000000244000
  0
ACAD_PROXY_OBJECT
  5
4E
102
{ACAD_REACTORS
330
47
102
}
330
47
100
AcDbProxyObject
 90
      499
 91
      503
 93
      113
310
904313A31364000000000000304000
  0
ACAD_PROXY_OBJECT
  5
4F
102
{ACAD_REACTORS
330
47
102
}
330
47
100
AcDbProxyObject
 90
      499
 91
      503
 93
      113
310
904313A32304000000000000344000
  0
ACAD_PROXY_OBJECT
  5
50
102
{ACAD_REACTORS
330
47
102
}
330
47
100
AcDbProxyObject
 90
      499
 91
      503
 93
      113
310
904313A333040000000000003E4000
  0
ACAD_PROXY_OBJECT
  5
51
102
{ACAD_REACTORS
330
47
102
}
330
47
100
AcDbProxyObject
 90
      499
 91
      503
 93
      113
310
904313A34304000000000000444000
  0
ACAD_PROXY_OBJECT
  5
52
102
{ACAD_REACTORS
330
47
102
}
330
47
100
AcDbProxyObject
 90
      499
 91
      503
 93
      113
310
904313A35304000000000000494000
  0
ACAD_PROXY_OBJECT
  5
53
102
{ACAD_REACTORS
330
47
102
}
330
47
100
AcDbProxyObject
 90
      499
 91
      503
 93
      121
310
905313A3130304000000000000594000
  0
ACAD_PROXY_OBJECT
  5
54
102
{ACAD_REACTORS
330
47
102
}
330
47
100
AcDbProxyObject
 90
      499
 91
      503
 93
      105
310
903323A310000000000000010100
  0
ACAD_PROXY_OBJECT
  5
55
102
{ACAD_REACTORS
330
47
102
}
330
47
100
AcDbProxyObject
 90
      499
 91
      503
 93
      105
310
903343A310000000000000410100
  0
ACAD_PROXY_OBJECT
  5
56
102
{ACAD_REACTORS
330
47
102
}
330
47
100
AcDbProxyObject
 90
      499
 91
      503
 93
      105
310
903383A310000000000000810100
  0
ACAD_PROXY_OBJECT
  5
57
102
{ACAD_REACTORS
330
47
102
}
330
47
100
AcDbProxyObject
 90
      499
 91
      503
 93
      113
310
90431303A310000000000000910100
  0
ACAD_PROXY_OBJECT
  5
58
102
{ACAD_REACTORS
330
47
102
}
330
47
100
AcDbProxyObject
 90
      499
 91
      503
 93
      121
310
9053130303A310000000000001650100
  0
ACAD_PROXY_OBJECT
  5
59
102
{ACAD_REACTORS
330
47
102
}
330
47
100
AcDbProxyObject
 90
      499
 91
      503
 93
      257
310
90E312F31323822203D2031272D3022000000000000200FC000000000000284000
  0
ACAD_PROXY_OBJECT
  5
5A
102
{ACAD_REACTORS
330
47
102
}
330
47
100
AcDbProxyObject
 90
      499
 91
      503
 93
      249
310
90D312F363422203D2031272D3022000000000000240FC000000000000284000
  0
ACAD_PROXY_OBJECT
  5
5B
102
{ACAD_REACTORS
330
47
102
}
330
47
100
AcDbProxyObject
 90
      499
 91
      503
 93
      249
310
90D312F333222203D2031272D3022000000000000280FC000000000000284000
  0
ACAD_PROXY_OBJECT
  5
5C
102
{ACAD_REACTORS
330
47
102
}
330
47
100
AcDbProxyObject
 90
      499
 91
      503
 93
      249
310
90D312F313622203D2031272D30220000000000002C0FC000000000000284000
  0
ACAD_PROXY_OBJECT
  5
5D
102
{ACAD_REACTORS
330
47
102
}
330
47
100
AcDbProxyObject
 90
      499
 91
      503
 93
      249
310
90D332F333222203D2031272D30220000000000002E0FC000000000000284000
  0
ACAD_PROXY_OBJECT
  5
5E
102
{ACAD_REACTORS
330
47
102
}
330
47
100
AcDbProxyObject
 90
      499
 91
      503
 93
      241
310
90C312F3822203D2031272D3022000000000000300FC000000000000284000
  0
ACAD_PROXY_OBJECT
  5
5F
102
{ACAD_REACTORS
330
47
102
}
330
47
100
AcDbProxyObject
 90
      499
 91
      503
 93
      249
310
90D332F313622203D2031272D3022000000000000320FC000000000000284000
  0
ACAD_PROXY_OBJECT
  5
60
102
{ACAD_REACTORS
330
47
102
}
330
47
100
AcDbProxyObject
 90
      499
 91
      503
 93
      241
310
90C312F3422203D2031272D3022000000000000340FC000000000000284000
  0
ACAD_PROXY_OBJECT
  5
61
102
{ACAD_REACTORS
330
47
102
}
330
47
100
AcDbProxyObject
 90
      499
 91
      503
 93
      241
310
90C332F3822203D2031272D3022000000000000360FC000000000000284000
  0
ACAD_PROXY_OBJECT
  5
62
102
{ACAD_REACTORS
330
47
102
}
330
47
100
AcDbProxyObject
 90
      499
 91
      503
 93
      241
310
90C312F3222203D2031272D3022000000000000380FC000000000000284000
  0
ACAD_PROXY_OBJECT
  5
63
102
{ACAD_REACTORS
330
47
102
}
330
47
100
AcDbProxyObject
 90
      499
 91
      503
 93
      241
310
90C332F3422203D2031272D30220000000000003A0FC000000000000284000
  0
ACAD_PROXY_OBJECT
  5
64
102
{ACAD_REACTORS
330
47
102
}
330
47
100
AcDbProxyObject
 90
      499
 91
      503
 93
      161
310
90A3122203D2031272D30224000000000000284000
  0
ACAD_PROXY_OBJECT
  5
65
102
{ACAD_REACTORS
330
47
102
}
330
47
100
AcDbProxyObject
 90
      499
 91
      503
 93
      257
310
90E312D312F3222203D2031272D30220000000000003E0FC000000000000284000
  0
ACAD_PROXY_OBJECT
  5
66
102
{ACAD_REACTORS
330
47
102
}
330
47
100
AcDbProxyObject
 90
      499
 91
      503
 93
      225
310
90A3322203D2031272D302200000000000002100000000000000284000
  0
ACAD_PROXY_OBJECT
  5
67
102
{ACAD_REACTORS
330
47
102
}
330
47
100
AcDbProxyObject
 90
      499
 91
      503
 93
      225
310
90A3622203D2031272D302200000000000006100000000000000284000
  0
ACAD_PROXY_OBJECT
  5
68
102
{ACAD_REACTORS
330
47
102
}
330
47
100
AcDbProxyObject
 90
      499
 91
      503
 93
      249
310
90D31272D3022203D2031272D30220000000000000A100000000000000284000
  0
ACAD_PROXY_OBJECT
  5
2F
102
{ACAD_REACTORS
330
2A
102
}
330
2A
100
AcDbProxyObject
 90
      499
 91
      501
 93
      436
310
42CC9915DA5C99599C985B595049028333333333333E33F0000000000000F90107901411070040501600405405064090741402480A0340
1001
ACAD
1000
AcDbSavedByObjectVersion
1070
     0
  0
ACAD_PROXY_OBJECT
  5
32
102
{ACAD_REACTORS
330
2A
102
}
330
2A
100
AcDbProxyObject
 90
      499
 91
      501
 93
      388
310
4150985CDA58D07406404333333333333E33F0000000000000F90107A41107004050150841D405064090741402480A0350
1001
ACAD
1000
AcDbSavedByObjectVersion
1070
     0
  0
ACAD_PROXY_OBJECT
  5
36
102
{ACAD_REACTORS
330
2A
102
}
330
2A
100
AcDbProxyObject
 90
      499
 91
      501
 93
      428
310
42109C9A59DA1D195B90C409028333333333333E33F0000000000000F9010790141107004050150841D405064090741402480A029950
1001
ACAD
1000
AcDbSavedByObjectVersion
1070
     0
  0
ACAD_PROXY_OBJECT
  5
3A
102
{ACAD_REACTORS
330
2A
102
}
330
2A
100
AcDbProxyObject
 90
      499
 91
      501
 93
      452
310
42D0DBDB1BDC90DA185B99D95104090240C333333333333E33F0000000000000F90108901411070040501508421405064090741402480A0350
1001
ACAD
1000
AcDbSavedByObjectVersion
1070
     0
  0
ACAD_PROXY_OBJECT
  5
34
102
{ACAD_REACTORS
330
2A
102
}
330
2A
100
AcDbProxyObject
 90
      499
 91
      501
 93
      500
310
4290DBDB98D95C1D1D585B10940D028333333333333E33F0000000000000F90107902409070040501000000000018199010841D405064090740C02480A0340
1001
ACAD
1000
AcDbSavedByObjectVersion
1070
     0
  0
ACAD_PROXY_OBJECT
  5
35
102
{ACAD_REACTORS
330
2A
102
}
330
2A
100
AcDbProxyObject
 90
      499
 91
      501
 93
      412
310
40D11A5B50B409028333333333333E33F0000000000000F9010790141107004050150841D405064090741402480A02677FFFFFD0
1001
ACAD
1000
AcDbSavedByObjectVersion
1070
     0
  0
ACAD_PROXY_OBJECT
  5
3D
102
{ACAD_REACTORS
330
2A
102
}
330
2A
100
AcDbProxyObject
 90
      499
 91
      501
 93
      452
310
43115919D950DBDB1BDC93D999916409028333333333333E33F0000000000000F9010790141107004050150841D405064090741402480A0350
1001
ACAD
1000
AcDbSavedByObjectVersion
1070
     0
  0
ACAD_PROXY_OBJECT
  5
39
102
{ACAD_REACTORS
330
2A
102
}
330
2A
100
AcDbProxyObject
 90
      499
 91
      501
 93
      444
310
42D19858D95C185D1D195C9B90F409028333333333333E33F0000000000000F9010790141107004050150841D405064090741402480A0350
1001
ACAD
1000
AcDbSavedByObjectVersion
1070
     0
  0
ACAD_PROXY_OBJECT
  5
2B
102
{ACAD_REACTORS
330
2A
102
}
330
2A
100
AcDbProxyObject
 90
      499
 91
      501
 93
      380
310
41119B185D240901404333333333333E33F0000000000000F9010740A907004050150841D405064090741402480A1B50
1001
ACAD
1000
AcDbSavedByObjectVersion
1070
     0
  0
ACAD_PROXY_OBJECT
  5
2C
102
{ACAD_REACTORS
330
2A
102
}
330
2A
100
AcDbProxyObject
 90
      499
 91
      501
 93
      468
310
43519B185D15DA5D1A115919D95CD0140901404333333333333E33F0000000000000F90107409019070040501600405405064090741402480A1B50
1001
ACAD
1000
AcDbSavedByObjectVersion
1070
     0
  0
ACAD_PROXY_OBJECT
  5
2D
102
{ACAD_REACTORS
330
2A
102
}
330
2A
100
AcDbProxyObject
 90
      499
 91
      501
 93
      404
310
41D1DBDD5C985D5910240902404333333333333E33F0000000000000F9010740A9070040501641D405064090741402480A1B50
1001
ACAD
1000
AcDbSavedByObjectVersion
1070
     0
  0
ACAD_PROXY_OBJECT
  5
2E
102
{ACAD_REACTORS
330
2A
102
}
330
2A
100
AcDbProxyObject
 90
      499
 91
      501
 93
      492
310
4411DBDD5C985D5915DA5D1A115919D95CD0340902404333333333333E33F0000000000000F90107409019070040501600405405064090741402480A1B50
1001
ACAD
1000
AcDbSavedByObjectVersion
1070
     0
  0
ACAD_PROXY_OBJECT
  5
31
102
{ACAD_REACTORS
330
2A
102
}
330
2A
100
AcDbProxyObject
 90
      499
 91
      501
 93
      476
310
41921A5919195B90640502408333333333333E33F0000000000000F901079024090700405020000000000001110200405405064090740C02480A0340
1001
ACAD
1000
AcDbSavedByObjectVersion
1070
     0
  0
ACAD_PROXY_OBJECT
  5
3B
102
{ACAD_REACTORS
330
2A
102
}
330
2A
100
AcDbProxyObject
 90
      499
 91
      501
 93
      428
310
42529A5D1D195C93D999914409028333333333333E33F0000000000000F9010790141107004050150A41D405064090741402480A0350
1001
ACAD
1000
AcDbSavedByObjectVersion
1070
     0
  0
ACAD_PROXY_OBJECT
  5
38
102
{ACAD_REACTORS
330
2A
102
}
330
2A
100
AcDbProxyObject
 90
      499
 91
      501
 93
      444
310
42D31A5B995C185D1D195C9B90E409028333333333333E33F0000000000000F9010790141107004050750841D405064090741402483A0350
1001
ACAD
1000
AcDbSavedByObjectVersion
1070
     0
  0
ACAD_PROXY_OBJECT
  5
3C
102
{ACAD_REACTORS
330
2A
102
}
330
2A
100
AcDbProxyObject
 90
      499
 91
      501
 93
      444
310
42D3DD995C9A185B99D3D999915409028333333333333E33F0000000000000F9010790141107004050150941D405064090741402480A0350
1001
ACAD
1000
AcDbSavedByObjectVersion
1070
     0
  0
ACAD_PROXY_OBJECT
  5
33
102
{ACAD_REACTORS
330
2A
102
}
330
2A
100
AcDbProxyObject
 90
      499
 91
      501
 93
      428
310
425499585B1A5CDD1A58D08409038333333333333E33F0000000000000F9010740A907004050150800405405064090740C02480A1B40
1001
ACAD
1000
AcDbSavedByObjectVersion
1070
     0
  0
ACAD_PROXY_OBJECT
  5
42
102
{ACAD_REACTORS
330
2A
102
}
330
2A
100
AcDbProxyObject
 90
      499
 91
      501
 93
      420
310
4194DA1859195911B40902404333333333333E33F0000000000000F9010740A41107004050150800405405064090840C02480A0B40
1001
ACAD
1000
AcDbSavedByObjectVersion
1070
     0
  0
ACAD_PROXY_OBJECT
  5
41
102
{ACAD_REACTORS
330
2A
102
}
330
2A
100
AcDbProxyObject
 90
      499
 91
      501
 93
      516
310
4454DA18591959081DDA5D1A08195919D95CD1A40902404333333333333E33F0000000000000F901074090142907004050250800405405064090740C02480A0B40
1001
ACAD
1000
AcDbSavedByObjectVersion
1070
     0
  0
ACAD_PROXY_OBJECT
  5
3E
102
{ACAD_REACTORS
330
2A
102
}
330
2A
100
AcDbProxyObject
 90
      499
 91
      501
 93
      532
310
4394DA1859195CC81BD98811DC985E5174090240C333333333333E33F0000000000000F901079024090741D01000000000000111010841D405064090740C02480A0340
1001
ACAD
1000
AcDbSavedByObjectVersion
1070
     0
  0
ACAD_PROXY_OBJECT
  5
3F
102
{ACAD_REACTORS
330
2A
102
}
330
2A
100
AcDbProxyObject
 90
      499
 91
      501
 93
      476
310
41D4DAD95D18DA1E51840502408333333333333E33F0000000000000F901079024090741D01000000000000111010B41D405064090741802480A0340
1001
ACAD
1000
AcDbSavedByObjectVersion
1070
     0
  0
ACAD_PROXY_OBJECT
  5
37
102
{ACAD_REACTORS
330
2A
102
}
330
2A
100
AcDbProxyObject
 90
      499
 91
      501
 93
      412
310
41D51A1A58DAD95B90D409028333333333333E33F0000000000000F9010790141107004050150C41D405064090741402480A0350
1001
ACAD
1000
AcDbSavedByObjectVersion
1070
     0
  0
ACAD_PROXY_OBJECT
  5
30
102
{ACAD_REACTORS
330
2A
102
}
330
2A
100
AcDbProxyObject
 90
      499
 91
      501
 93
      420
310
4255DA5C99599C985B595059028333333333333E33F0000000000000F90107901411070040501600405405064090740C02480A0340
1001
ACAD
1000
AcDbSavedByObjectVersion
1070
     0
  0
ACAD_PROXY_OBJECT
  5
40
102
{ACAD_REACTORS
330
2A
102
}
330
2A
100
AcDbProxyObject
 90
      499
 91
      501
 93
      404
310
41560B54985E51940902404000000000000E03F0000000000000F9010740501907004050150841D405064090740C02480A1B40
1001
ACAD
1000
AcDbSavedByObjectVersion
1070
     0
  0
XRECORD
  5
1D6
102
{ACAD_REACTORS
330
1CC
102
}
330
1CC
100
AcDbXrecord
340
0
  0
XRECORD
  5
1D5
102
{ACAD_REACTORS
330
1CC
102
}
330
1CC
100
AcDbXrecord
 90
        0
  0
XRECORD
  5
1EC
102
{ACAD_REACTORS
330
1CC
102
}
330
1CC
100
AcDbXrecord
1000
DSTYLE
1002
{
1070
   340
340
11
1002
}
  0
XRECORD
  5
1D7
102
{ACAD_REACTORS
330
1CC
102
}
330
1CC
100
AcDbXrecord
  1
{5C83DAB7-E540-4C69-85BC-54C9A67EA50C}
  0
XRECORD
  5
1CF
102
{ACAD_REACTORS
330
1CC
102
}
330
1CC
100
AcDbXrecord
  1

  0
XRECORD
  5
1D4
102
{ACAD_REACTORS
330
1CC
102
}
330
1CC
100
AcDbXrecord
 90
        4
  0
XRECORD
  5
1D1
102
{ACAD_REACTORS
330
1CC
102
}
330
1CC
100
AcDbXrecord
340
1A
  0
XRECORD
  5
1D3
102
{ACAD_REACTORS
330
1CC
102
}
330
1CC
100
AcDbXrecord
 90
    10781
  0
XRECORD
  5
1D2
102
{ACAD_REACTORS
330
1CC
102
}
330
1CC
100
AcDbXrecord
340
19
  0
XRECORD
  5
1D9
102
{ACAD_REACTORS
330
1CC
102
}
330
1CC
100
AcDbXrecord
 40
0.0
  0
XRECORD
  5
1DC
102
{ACAD_REACTORS
330
1CC
102
}
330
1CC
100
AcDbXrecord
340
0
  0
XRECORD
  5
1E2
102
{ACAD_REACTORS
330
1CC
102
}
330
1CC
100
AcDbXrecord
 10
0.0
 20
0.0
 30
0.0
  0
XRECORD
  5
1DE
102
{ACAD_REACTORS
330
1CC
102
}
330
1CC
100
AcDbXrecord
 10
0.0
 20
0.0
 30
0.0
  0
XRECORD
  5
1E1
102
{ACAD_REACTORS
330
1CC
102
}
330
1CC
100
AcDbXrecord
 10
0.0
 20
0.0
 30
0.0
  0
XRECORD
  5
1DF
102
{ACAD_REACTORS
330
1CC
102
}
330
1CC
100
AcDbXrecord
 10
0.0
 20
0.0
 30
0.0
  0
XRECORD
  5
1E0
102
{ACAD_REACTORS
330
1CC
102
}
330
1CC
100
AcDbXrecord
 10
0.0
 20
0.0
 30
0.0
  0
XRECORD
  5
1DD
102
{ACAD_REACTORS
330
1CC
102
}
330
1CC
100
AcDbXrecord
 10
0.0
 20
0.0
 30
0.0
  0
XRECORD
  5
1DA
102
{ACAD_REACTORS
330
1CC
102
}
330
1CC
100
AcDbXrecord
340
0
  0
XRECORD
  5
1DB
102
{ACAD_REACTORS
330
1CC
102
}
330
1CC
100
AcDbXrecord
 70
     0
  0
XRECORD
  5
1D0
102
{ACAD_REACTORS
330
1CC
102
}
330
1CC
100
AcDbXrecord
  1

  0
XRECORD
  5
1CD
102
{ACAD_REACTORS
330
1CC
102
}
330
1CC
100
AcDbXrecord
 90
        1
  0
XRECORD
  5
1CE
102
{ACAD_REACTORS
330
1CC
102
}
330
1CC
100
AcDbXrecord
 90
       70
  0
XRECORD
  5
1E5
102
{ACAD_REACTORS
330
1CC
102
}
330
1CC
100
AcDbXrecord
340
0
  0
XRECORD
  5
1EB
102
{ACAD_REACTORS
330
1CC
102
}
330
1CC
100
AcDbXrecord
 10
0.0
 20
0.0
 30
0.0
  0
XRECORD
  5
1E7
102
{ACAD_REACTORS
330
1CC
102
}
330
1CC
100
AcDbXrecord
 10
0.0
 20
0.0
 30
0.0
  0
XRECORD
  5
1EA
102
{ACAD_REACTORS
330
1CC
102
}
330
1CC
100
AcDbXrecord
 10
0.0
 20
0.0
 30
0.0
  0
XRECORD
  5
1E8
102
{ACAD_REACTORS
330
1CC
102
}
330
1CC
100
AcDbXrecord
 10
0.0
 20
0.0
 30
0.0
  0
XRECORD
  5
1E9
102
{ACAD_REACTORS
330
1CC
102
}
330
1CC
100
AcDbXrecord
 10
0.0
 20
0.0
 30
0.0
  0
XRECORD
  5
1E6
102
{ACAD_REACTORS
330
1CC
102
}
330
1CC
100
AcDbXrecord
 10
0.0
 20
0.0
 30
0.0
  0
XRECORD
  5
1E3
102
{ACAD_REACTORS
330
1CC
102
}
330
1CC
100
AcDbXrecord
340
0
  0
XRECORD
  5
1E4
102
{ACAD_REACTORS
330
1CC
102
}
330
1CC
100
AcDbXrecord
 70
     0
  0
XRECORD
  5
1D8
102
{ACAD_REACTORS
330
1CC
102
}
330
1CC
100
AcDbXrecord
  1
{FAEB1C32-E019-11D5-929B-00C0DF256EC4}
  0
DICTIONARYVAR
  5
1F8
102
{ACAD_REACTORS
330
1ED
102
}
330
1ED
100
DictionaryVariables
280
     0
  1
1:1
  0
DICTIONARYVAR
  5
1EF
102
{ACAD_REACTORS
330
1ED
102
}
330
1ED
100
DictionaryVariables
280
     0
  1
Standard
  0
DICTIONARYVAR
  5
1EE
102
{ACAD_REACTORS
330
1ED
102
}
330
1ED
100
DictionaryVariables
280
     0
  1
Standard
  0
DICTIONARYVAR
  5
1F4
102
{ACAD_REACTORS
330
1ED
102
}
330
1ED
100
DictionaryVariables
280
     0
  1
2
  0
DICTIONARYVAR
  5
1F5
102
{ACAD_REACTORS
330
1ED
102
}
330
1ED
100
DictionaryVariables
280
     0
  1
1
  0
DICTIONARYVAR
  5
1F9
102
{ACAD_REACTORS
330
1ED
102
}
330
1ED
100
DictionaryVariables
280
     0
  1
1
  0
DICTIONARYVAR
  5
1F1
102
{ACAD_REACTORS
330
1ED
102
}
330
1ED
100
DictionaryVariables
280
     0
  1
80.000000
  0
DICTIONARYVAR
  5
1F0
102
{ACAD_REACTORS
330
1ED
102
}
330
1ED
100
DictionaryVariables
280
     0
  1
5.000000
  0
DICTIONARY
  5
1FC
330
45
100
AcDbDictionary
280
     1
  3
ACAD_XREC_ROUNDTRIP
360
1FD
  0
DICTIONARY
  5
1FA
330
44
100
AcDbDictionary
280
     1
  3
ACAD_XREC_ROUNDTRIP
360
1FB
  0
DICTIONARY
  5
1FE
330
46
100
AcDbDictionary
280
     1
  3
ACAD_XREC_ROUNDTRIP
360
1FF
  0
XRECORD
  5
1FD
102
{ACAD_REACTORS
330
1FC
102
}
330
1FC
100
AcDbXrecord
102
MATERIAL
148
0.0
149
0.0
149
0.0
 93
        0
 94
      127
282
     0
 72
     1
 77
     1
171
     1
175
     1
179
     1
273
     0
  0
XRECORD
  5
1FB
102
{ACAD_REACTORS
330
1FA
102
}
330
1FA
100
AcDbXrecord
102
MATERIAL
148
0.0
149
0.0
149
0.0
 93
        0
 94
      127
282
     0
 72
     1
 77
     1
171
     1
175
     1
179
     1
273
     0
  0
XRECORD
  5
1FF
102
{ACAD_REACTORS
330
1FE
102
}
330
1FE
100
AcDbXrecord
102
MATERIAL
148
0.0
149
0.0
149
0.0
 93
        0
 94
      127
282
     0
 72
     1
 77
     1
171
     1
175
     1
179
     1
273
     0
  0
ENDSEC
  0
EOF
