  0
SECTION
  2
HEADER
  9
$ACADVER
  1
AC1014
  9
$ACADMAINTVER
 70
     9
  9
$DWGCODEPAGE
  3
ANSI_932
  9
$INSBASE
 10
0.0
 20
0.0
 30
0.0
  9
$EXTMIN
 10
65.00000000000001
 20
26.3
 30
0.0
  9
$EXTMAX
 10
520.0
 20
388.9999999999999
 30
0.0
  9
$LIMMIN
 10
0.0
 20
0.0
  9
$LIMMAX
 10
594.0
 20
420.0
  9
$ORTHOMODE
 70
     0
  9
$REGENMODE
 70
     1
  9
$FILLMODE
 70
     1
  9
$QTEXTMODE
 70
     0
  9
$MIRRTEXT
 70
     1
  9
$DRAGMODE
 70
     2
  9
$LTSCALE
 40
1.0
  9
$OSMODE
 70
    37
  9
$ATTMODE
 70
     1
  9
$TEXTSIZE
 40
2.5
  9
$TRACEWID
 40
1.0
  9
$TEXTSTYLE
  7
STANDARD
  9
$CLAYER
  8
LAY-1
  9
$CELTYPE
  6
BYLAYER
  9
$CECOLOR
 62
   256
  9
$CELTSCALE
 40
1.0
  9
$DELOBJ
 70
     1
  9
$DISPSILH
 70
     0
  9
$DIMSCALE
 40
1.0
  9
$DIMASZ
 40
2.5
  9
$DIMEXO
 40
0.625
  9
$DIMDLI
 40
3.75
  9
$DIMRND
 40
0.0
  9
$DIMDLE
 40
0.0
  9
$DIMEXE
 40
1.25
  9
$DIMTP
 40
0.0
  9
$DIMTM
 40
0.0
  9
$DIMTXT
 40
2.5
  9
$DIMCEN
 40
2.5
  9
$DIMTSZ
 40
0.0
  9
$DIMTOL
 70
     0
  9
$DIMLIM
 70
     0
  9
$DIMTIH
 70
     0
  9
$DIMTOH
 70
     0
  9
$DIMSE1
 70
     0
  9
$DIMSE2
 70
     0
  9
$DIMTAD
 70
     1
  9
$DIMZIN
 70
     8
  9
$DIMBLK
  1

  9
$DIMASO
 70
     1
  9
$DIMSHO
 70
     1
  9
$DIMPOST
  1

  9
$DIMAPOST
  1

  9
$DIMALT
 70
     0
  9
$DIMALTD
 70
     3
  9
$DIMALTF
 40
0.03937007874016
  9
$DIMLFAC
 40
1.0
  9
$DIMTOFL
 70
     1
  9
$DIMTVP
 40
0.0
  9
$DIMTIX
 70
     0
  9
$DIMSOXD
 70
     0
  9
$DIMSAH
 70
     0
  9
$DIMBLK1
  1

  9
$DIMBLK2
  1

  9
$DIMSTYLE
  2
ISO-25
  9
$DIMCLRD
 70
     0
  9
$DIMCLRE
 70
     0
  9
$DIMCLRT
 70
     0
  9
$DIMTFAC
 40
1.0
  9
$DIMGAP
 40
0.625
  9
$DIMJUST
 70
     0
  9
$DIMSD1
 70
     0
  9
$DIMSD2
 70
     0
  9
$DIMTOLJ
 70
     0
  9
$DIMTZIN
 70
     8
  9
$DIMALTZ
 70
     0
  9
$DIMALTTZ
 70
     0
  9
$DIMFIT
 70
     3
  9
$DIMUPT
 70
     0
  9
$DIMUNIT
 70
     2
  9
$DIMDEC
 70
     2
  9
$DIMTDEC
 70
     2
  9
$DIMALTU
 70
     2
  9
$DIMALTTD
 70
     3
  9
$DIMTXSTY
  7
STANDARD
  9
$DIMAUNIT
 70
     0
  9
$LUNITS
 70
     2
  9
$LUPREC
 70
     4
  9
$SKETCHINC
 40
1.0
  9
$FILLETRAD
 40
10.0
  9
$AUNITS
 70
     0
  9
$AUPREC
 70
     0
  9
$MENU
  1
.
  9
$ELEVATION
 40
0.0
  9
$PELEVATION
 40
0.0
  9
$THICKNESS
 40
0.0
  9
$LIMCHECK
 70
     0
  9
$CHAMFERA
 40
0.0
  9
$CHAMFERB
 40
0.0
  9
$CHAMFERC
 40
0.0
  9
$CHAMFERD
 40
0.0
  9
$SKPOLY
 70
     0
  9
$TDCREATE
 40
2458312.598774919
  9
$TDUPDATE
 40
2458312.598775104
  9
$TDINDWG
 40
0.0000000116
  9
$TDUSRTIMER
 40
0.0000000116
  9
$USRTIMER
 70
     1
  9
$ANGBASE
 50
0.0
  9
$ANGDIR
 70
     0
  9
$PDMODE
 70
     0
  9
$PDSIZE
 40
0.0
  9
$PLINEWID
 40
0.0
  9
$COORDS
 70
     1
  9
$SPLFRAME
 70
     0
  9
$SPLINETYPE
 70
     6
  9
$SPLINESEGS
 70
     8
  9
$ATTDIA
 70
     0
  9
$ATTREQ
 70
     1
  9
$HANDLING
 70
     1
  9
$HANDSEED
  5
2DD
  9
$SURFTAB1
 70
     6
  9
$SURFTAB2
 70
     6
  9
$SURFTYPE
 70
     6
  9
$SURFU
 70
     6
  9
$SURFV
 70
     6
  9
$UCSNAME
  2

  9
$UCSORG
 10
0.0
 20
0.0
 30
0.0
  9
$UCSXDIR
 10
1.0
 20
0.0
 30
0.0
  9
$UCSYDIR
 10
0.0
 20
1.0
 30
0.0
  9
$PUCSNAME
  2

  9
$PUCSORG
 10
0.0
 20
0.0
 30
0.0
  9
$PUCSXDIR
 10
1.0
 20
0.0
 30
0.0
  9
$PUCSYDIR
 10
0.0
 20
1.0
 30
0.0
  9
$USERI1
 70
     0
  9
$USERI2
 70
     0
  9
$USERI3
 70
     0
  9
$USERI4
 70
     0
  9
$USERI5
 70
     0
  9
$USERR1
 40
0.0
  9
$USERR2
 40
0.0
  9
$USERR3
 40
0.0
  9
$USERR4
 40
0.0
  9
$USERR5
 40
0.0
  9
$WORLDVIEW
 70
     1
  9
$SHADEDGE
 70
     3
  9
$SHADEDIF
 70
    70
  9
$TILEMODE
 70
     1
  9
$MAXACTVP
 70
    64
  9
$PINSBASE
 10
0.0
 20
0.0
 30
0.0
  9
$PLIMCHECK
 70
     0
  9
$PEXTMIN
 10
1.000000000000000E+20
 20
1.000000000000000E+20
 30
1.000000000000000E+20
  9
$PEXTMAX
 10
-1.000000000000000E+20
 20
-1.000000000000000E+20
 30
-1.000000000000000E+20
  9
$PLIMMIN
 10
0.0
 20
0.0
  9
$PLIMMAX
 10
420.0
 20
297.0
  9
$UNITMODE
 70
     0
  9
$VISRETAIN
 70
     1
  9
$PLINEGEN
 70
     0
  9
$PSLTSCALE
 70
     1
  9
$TREEDEPTH
 70
  3020
  9
$PICKSTYLE
 70
     1
  9
$CMLSTYLE
  2
STANDARD
  9
$CMLJUST
 70
     0
  9
$CMLSCALE
 40
20.0
  9
$PROXYGRAPHICS
 70
     1
  9
$MEASUREMENT
 70
     1
  0
ENDSEC
  0
SECTION
  2
CLASSES
  0
CLASS
  1
ACDBDICTIONARYWDFLT
  2
AcDbDictionaryWithDefault
  3
ObjectDBX Classes
 90
        0
280
     0
281
     0
  0
CLASS
  1
VISUALSTYLE
  2
AcDbVisualStyle
  3
ObjectDBX Classes
 90
     4095
280
     0
281
     0
  0
CLASS
  1
MATERIAL
  2
AcDbMaterial
  3
ObjectDBX Classes
 90
     1153
280
     0
281
     0
  0
CLASS
  1
SCALE
  2
AcDbScale
  3
ObjectDBX Classes
 90
     1153
280
     0
281
     0
  0
CLASS
  1
TABLESTYLE
  2
AcDbTableStyle
  3
ObjectDBX Classes
 90
     4095
280
     0
281
     0
  0
CLASS
  1
MLEADERSTYLE
  2
AcDbMLeaderStyle
  3
ACDB_MLEADERSTYLE_CLASS
 90
     4095
280
     0
281
     0
  0
CLASS
  1
SUN
  2
AcDbSun
  3
SCENEOE
 90
     1153
280
     0
281
     0
  0
CLASS
  1
DICTIONARYVAR
  2
AcDbDictionaryVar
  3
ObjectDBX Classes
 90
        0
280
     0
281
     0
  0
CLASS
  1
XRECORD
  2
AcDbXrecord
  3
ObjectDBX Classes
 90
        0
280
     0
281
     0
  0
CLASS
  1
LWPOLYLINE
  2
AcDbPolyline
  3
ObjectDBX Classes
 90
        0
280
     0
281
     1
  0
CLASS
  1
HATCH
  2
AcDbHatch
  3
ObjectDBX Classes
 90
        0
280
     0
281
     1
  0
CLASS
  1
ACDBPLACEHOLDER
  2
AcDbPlaceHolder
  3
ObjectDBX Classes
 90
        0
280
     0
281
     0
  0
CLASS
  1
LAYOUT
  2
AcDbLayout
  3
ObjectDBX Classes
 90
        0
280
     0
281
     0
  0
ENDSEC
  0
SECTION
  2
TABLES
  0
TABLE
  2
VPORT
  5
8
102
{ACAD_XDICTIONARY
360
2D2
102
}
330
0
100
AcDbSymbolTable
 70
     1
  0
VPORT
  5
29
330
8
100
AcDbSymbolTableRecord
100
AcDbViewportTableRecord
  2
*ACTIVE
 70
     0
 10
0.0
 20
0.0
 11
1.0
 21
1.0
 12
292.5
 22
207.65
 13
0.0
 23
0.0
 14
10.0
 24
10.0
 15
10.0
 25
10.0
 16
0.0
 26
0.0
 36
1.0
 17
0.0
 27
0.0
 37
0.0
 40
362.6999999999999
 41
1.254480286738352
 42
50.0
 43
0.0
 44
0.0
 50
0.0
 51
0.0
 71
     0
 72
  1000
 73
     1
 74
     3
 75
     0
 76
     0
 77
     0
 78
     0
  0
ENDTAB
  0
TABLE
  2
LTYPE
  5
5
330
0
100
AcDbSymbolTable
 70
    12
  0
LTYPE
  5
14
330
5
100
AcDbSymbolTableRecord
100
AcDbLinetypeTableRecord
  2
BYBLOCK
 70
     0
  3

 72
    65
 73
     0
 40
0.0
  0
LTYPE
  5
15
330
5
100
AcDbSymbolTableRecord
100
AcDbLinetypeTableRecord
  2
BYLAYER
 70
     0
  3

 72
    65
 73
     0
 40
0.0
  0
LTYPE
  5
16
330
5
100
AcDbSymbolTableRecord
100
AcDbLinetypeTableRecord
  2
CONTINUOUS
 70
     0
  3
Solid line
 72
    65
 73
     0
 40
0.0
  0
LTYPE
  5
6E
330
5
100
AcDbSymbolTableRecord
100
AcDbLinetypeTableRecord
  2
EXLTYPE0
 70
     0
  3
一点鎖線2
 72
    65
 73
     4
 40
8.0
 49
5.0
 74
     0
 49
-1.0
 74
     0
 49
1.0
 74
     0
 49
-1.0
 74
     0
  0
LTYPE
  5
6F
330
5
100
AcDbSymbolTableRecord
100
AcDbLinetypeTableRecord
  2
EXLTYPE1
 70
     0
  3
点線
 72
    65
 73
     2
 40
2.0
 49
1.0
 74
     0
 49
-1.0
 74
     0
  0
LTYPE
  5
70
330
5
100
AcDbSymbolTableRecord
100
AcDbLinetypeTableRecord
  2
EXLTYPE2
 70
     0
  3
一点鎖線
 72
    65
 73
     4
 40
13.0
 49
10.0
 74
     0
 49
-1.0
 74
     0
 49
1.0
 74
     0
 49
-1.0
 74
     0
  0
LTYPE
  5
71
330
5
100
AcDbSymbolTableRecord
100
AcDbLinetypeTableRecord
  2
EXLTYPE3
 70
     0
  3
二点鎖線
 72
    65
 73
     6
 40
15.0
 49
10.0
 74
     0
 49
-1.0
 74
     0
 49
1.0
 74
     0
 49
-1.0
 74
     0
 49
1.0
 74
     0
 49
-1.0
 74
     0
  0
LTYPE
  5
72
330
5
100
AcDbSymbolTableRecord
100
AcDbLinetypeTableRecord
  2
EXLTYPE4
 70
     0
  3
破線
 72
    65
 73
     2
 40
3.0
 49
2.0
 74
     0
 49
-1.0
 74
     0
  0
LTYPE
  5
73
330
5
100
AcDbSymbolTableRecord
100
AcDbLinetypeTableRecord
  2
EXLTYPE5
 70
     0
  3
点線2
 72
    65
 73
     2
 40
1.0
 49
0.5
 74
     0
 49
-0.5
 74
     0
  0
LTYPE
  5
74
330
5
100
AcDbSymbolTableRecord
100
AcDbLinetypeTableRecord
  2
EXLTYPE6
 70
     0
  3
二点鎖線2
 72
    65
 73
     6
 40
7.5
 49
5.0
 74
     0
 49
-0.5
 74
     0
 49
0.5
 74
     0
 49
-0.5
 74
     0
 49
0.5
 74
     0
 49
-0.5
 74
     0
  0
LTYPE
  5
75
330
5
100
AcDbSymbolTableRecord
100
AcDbLinetypeTableRecord
  2
EXLTYPE7
 70
     0
  3
三点鎖線
 72
    65
 73
     8
 40
37.0
 49
30.0
 74
     0
 49
-1.0
 74
     0
 49
1.0
 74
     0
 49
-1.0
 74
     0
 49
1.0
 74
     0
 49
-1.0
 74
     0
 49
1.0
 74
     0
 49
-1.0
 74
     0
  0
LTYPE
  5
76
330
5
100
AcDbSymbolTableRecord
100
AcDbLinetypeTableRecord
  2
EXLTYPE8
 70
     0
  3
一点鎖線3
 72
    65
 73
     4
 40
33.0
 49
30.0
 74
     0
 49
-1.0
 74
     0
 49
1.0
 74
     0
 49
-1.0
 74
     0
  0
LTYPE
  5
77
330
5
100
AcDbSymbolTableRecord
100
AcDbLinetypeTableRecord
  2
EXLTYPE9
 70
     0
  3
二点鎖線3
 72
    65
 73
     6
 40
4.5
 49
2.0
 74
     0
 49
-0.5
 74
     0
 49
0.5
 74
     0
 49
-0.5
 74
     0
 49
0.5
 74
     0
 49
-0.5
 74
     0
  0
LTYPE
  5
78
330
5
100
AcDbSymbolTableRecord
100
AcDbLinetypeTableRecord
  2
EXLTYPE10
 70
     0
  3
四点鎖線
 72
    65
 73
    10
 40
39.0
 49
30.0
 74
     0
 49
-1.0
 74
     0
 49
1.0
 74
     0
 49
-1.0
 74
     0
 49
1.0
 74
     0
 49
-1.0
 74
     0
 49
1.0
 74
     0
 49
-1.0
 74
     0
 49
1.0
 74
     0
 49
-1.0
 74
     0
  0
ENDTAB
  0
TABLE
  2
LAYER
  5
2
330
0
100
AcDbSymbolTable
 70
     2
  0
LAYER
  5
10
330
2
100
AcDbSymbolTableRecord
100
AcDbLayerTableRecord
  2
0
 70
     0
 62
     7
  6
CONTINUOUS
  0
LAYER
  5
7B
330
2
100
AcDbSymbolTableRecord
100
AcDbLayerTableRecord
  2
LAY-1
 70
     0
 62
     7
  6
CONTINUOUS
  0
ENDTAB
  0
TABLE
  2
STYLE
  5
3
330
0
100
AcDbSymbolTable
 70
     4
  0
STYLE
  5
11
330
3
100
AcDbSymbolTableRecord
100
AcDbTextStyleTableRecord
  2
STANDARD
 70
     0
 40
0.0
 41
1.0
 50
0.0
 71
     0
 42
2.5
  3
monotxt
  4
extfont
  0
STYLE
  5
79
330
3
100
AcDbSymbolTableRecord
100
AcDbTextStyleTableRecord
  2
EXCADSTD
 70
     0
 40
0.0
 41
1.0
 50
0.0
 71
     0
 42
2.5
  3
monotxt
  4
extfont
  0
STYLE
  5
7A
330
3
100
AcDbSymbolTableRecord
100
AcDbTextStyleTableRecord
  2
EXCADVERT
 70
     4
 40
0.0
 41
1.0
 50
0.0
 71
     0
 42
2.5
  3
monotxt
  4
extfont
  0
STYLE
  5
F0
330
3
100
AcDbSymbolTableRecord
100
AcDbTextStyleTableRecord
  2
EXCADTTF1
 70
     0
 40
0.0
 41
1.0
 50
0.0
 71
     0
 42
2.5
  3
msmincho.ttc
  4

1001
ACAD
1000
MS Mincho
1071
    32785
  0
ENDTAB
  0
TABLE
  2
VIEW
  5
6
330
0
100
AcDbSymbolTable
 70
     0
  0
ENDTAB
  0
TABLE
  2
UCS
  5
7
330
0
100
AcDbSymbolTable
 70
     0
  0
ENDTAB
  0
TABLE
  2
APPID
  5
9
330
0
100
AcDbSymbolTable
 70
     2
  0
APPID
  5
12
330
9
100
AcDbSymbolTableRecord
100
AcDbRegAppTableRecord
  2
ACAD
 70
     0
  0
APPID
  5
2DC
330
9
100
AcDbSymbolTableRecord
100
AcDbRegAppTableRecord
  2
ACAD_MLEADERVER
 70
     0
  0
ENDTAB
  0
TABLE
  2
DIMSTYLE
  5
A
330
0
100
AcDbSymbolTable
 70
     1
  0
DIMSTYLE
105
27
330
A
100
AcDbSymbolTableRecord
100
AcDbDimStyleTableRecord
  2
ISO-25
 70
     0
  3

  4

  5

  6

  7

 40
1.0
 41
2.5
 42
0.625
 43
3.75
 44
1.25
 45
0.0
 46
0.0
 47
0.0
 48
0.0
140
2.5
141
2.5
142
0.0
143
0.03937007874016
144
1.0
145
0.0
146
1.0
147
0.625
 71
     0
 72
     0
 73
     0
 74
     0
 75
     0
 76
     0
 77
     1
 78
     8
170
     0
171
     3
172
     1
173
     0
174
     0
175
     0
176
     0
177
     0
178
     0
270
     2
271
     2
272
     2
273
     2
274
     3
340
11
275
     0
280
     0
281
     0
282
     0
283
     0
284
     8
285
     0
286
     0
287
     5
288
     0
  0
ENDTAB
  0
TABLE
  2
BLOCK_RECORD
  5
1
330
0
100
AcDbSymbolTable
 70
    17
  0
BLOCK_RECORD
  5
1F
330
1
100
AcDbSymbolTableRecord
100
AcDbBlockTableRecord
  2
*MODEL_SPACE
  0
BLOCK_RECORD
  5
1B
330
1
100
AcDbSymbolTableRecord
100
AcDbBlockTableRecord
  2
*PAPER_SPACE
  0
BLOCK_RECORD
  5
7C
330
1
100
AcDbSymbolTableRecord
100
AcDbBlockTableRecord
  2
EX_NORM
  0
BLOCK_RECORD
  5
7F
330
1
100
AcDbSymbolTableRecord
100
AcDbBlockTableRecord
  2
EX_BNORM
  0
BLOCK_RECORD
  5
82
330
1
100
AcDbSymbolTableRecord
100
AcDbBlockTableRecord
  2
EX_BCIR
  0
BLOCK_RECORD
  5
85
330
1
100
AcDbSymbolTableRecord
100
AcDbBlockTableRecord
  2
EX_RCIVIL
  0
BLOCK_RECORD
  5
88
330
1
100
AcDbSymbolTableRecord
100
AcDbBlockTableRecord
  2
EX_SLANT
  0
BLOCK_RECORD
  5
8B
330
1
100
AcDbSymbolTableRecord
100
AcDbBlockTableRecord
  2
EX_NONE
  0
BLOCK_RECORD
  5
8E
330
1
100
AcDbSymbolTableRecord
100
AcDbBlockTableRecord
  2
EX_CIVIL
  0
BLOCK_RECORD
  5
91
330
1
100
AcDbSymbolTableRecord
100
AcDbBlockTableRecord
  2
EX_WCIR
  0
BLOCK_RECORD
  5
94
330
1
100
AcDbSymbolTableRecord
100
AcDbBlockTableRecord
  2
EX_WCIR2
  0
BLOCK_RECORD
  5
97
330
1
100
AcDbSymbolTableRecord
100
AcDbBlockTableRecord
  2
EX_WNORM
  0
BLOCK_RECORD
  5
9A
330
1
100
AcDbSymbolTableRecord
100
AcDbBlockTableRecord
  2
EX_NNORM
  0
BLOCK_RECORD
  5
9D
330
1
100
AcDbSymbolTableRecord
100
AcDbBlockTableRecord
  2
EX_BBOX
  0
BLOCK_RECORD
  5
A0
330
1
100
AcDbSymbolTableRecord
100
AcDbBlockTableRecord
  2
EX_WBOX
  0
BLOCK_RECORD
  5
A3
330
1
100
AcDbSymbolTableRecord
100
AcDbBlockTableRecord
  2
EX_INTEGRAL
  0
BLOCK_RECORD
  5
A6
330
1
100
AcDbSymbolTableRecord
100
AcDbBlockTableRecord
  2
HN12
  0
BLOCK_RECORD
  5
A9
330
1
100
AcDbSymbolTableRecord
100
AcDbBlockTableRecord
  2
HBH12
  0
ENDTAB
  0
ENDSEC
  0
SECTION
  2
BLOCKS
  0
BLOCK
  5
20
330
1F
100
AcDbEntity
  8
0
100
AcDbBlockBegin
  2
*MODEL_SPACE
 70
     0
 10
0.0
 20
0.0
 30
0.0
  3
*MODEL_SPACE
  1

  0
ENDBLK
  5
21
330
1F
100
AcDbEntity
  8
0
100
AcDbBlockEnd
  0
BLOCK
  5
1C
330
1B
100
AcDbEntity
 67
     1
  8
0
100
AcDbBlockBegin
  2
*PAPER_SPACE
 70
     0
 10
0.0
 20
0.0
 30
0.0
  3
*PAPER_SPACE
  1

  0
ENDBLK
  5
1D
330
1B
100
AcDbEntity
 67
     1
  8
0
100
AcDbBlockEnd
  0
BLOCK
  5
7D
330
7C
100
AcDbEntity
  8
0
100
AcDbBlockBegin
  2
EX_NORM
 70
     0
 10
0.0
 20
0.0
 30
0.0
  3
EX_NORM
  1

  0
LINE
  5
AC
330
7C
100
AcDbEntity
  8
0
  6
CONTINUOUS
 62
     0
100
AcDbLine
 10
0.0
 20
0.0
 30
0.0
 11
-1.0
 21
0.0
 31
0.0
  0
LINE
  5
AD
330
7C
100
AcDbEntity
  8
0
  6
CONTINUOUS
 62
     0
100
AcDbLine
 10
0.0
 20
0.0
 30
0.0
 11
-1.0
 21
0.166666667
 31
0.0
  0
LINE
  5
AE
330
7C
100
AcDbEntity
  8
0
  6
CONTINUOUS
 62
     0
100
AcDbLine
 10
0.0
 20
0.0
 30
0.0
 11
-1.0
 21
-0.166666667
 31
0.0
  0
ENDBLK
  5
7E
330
7C
100
AcDbEntity
  8
0
100
AcDbBlockEnd
  0
BLOCK
  5
80
330
7F
100
AcDbEntity
  8
0
100
AcDbBlockBegin
  2
EX_BNORM
 70
     0
 10
0.0
 20
0.0
 30
0.0
  3
EX_BNORM
  1

  0
LINE
  5
AF
330
7F
100
AcDbEntity
  8
0
  6
CONTINUOUS
 62
     0
100
AcDbLine
 10
0.0
 20
0.0
 30
0.0
 11
-1.0
 21
0.0
 31
0.0
  0
LINE
  5
B0
330
7F
100
AcDbEntity
  8
0
  6
CONTINUOUS
 62
     0
100
AcDbLine
 10
0.0
 20
0.0
 30
0.0
 11
-1.0
 21
0.166666667
 31
0.0
  0
LINE
  5
B1
330
7F
100
AcDbEntity
  8
0
  6
CONTINUOUS
 62
     0
100
AcDbLine
 10
0.0
 20
0.0
 30
0.0
 11
-1.0
 21
-0.166666667
 31
0.0
  0
LINE
  5
B2
330
7F
100
AcDbEntity
  8
0
  6
CONTINUOUS
 62
     0
100
AcDbLine
 10
0.0
 20
0.0
 30
0.0
 11
-1.0
 21
0.083333333
 31
0.0
  0
LINE
  5
B3
330
7F
100
AcDbEntity
  8
0
  6
CONTINUOUS
 62
     0
100
AcDbLine
 10
0.0
 20
0.0
 30
0.0
 11
-1.0
 21
-0.083333333
 31
0.0
  0
LINE
  5
B4
330
7F
100
AcDbEntity
  8
0
  6
CONTINUOUS
 62
     0
100
AcDbLine
 10
-1.0
 20
0.166666667
 30
0.0
 11
-1.0
 21
-0.166666667
 31
0.0
  0
ENDBLK
  5
81
330
7F
100
AcDbEntity
  8
0
100
AcDbBlockEnd
  0
BLOCK
  5
83
330
82
100
AcDbEntity
  8
0
100
AcDbBlockBegin
  2
EX_BCIR
 70
     0
 10
0.0
 20
0.0
 30
0.0
  3
EX_BCIR
  1

  0
LINE
  5
B5
330
82
100
AcDbEntity
  8
0
  6
CONTINUOUS
 62
     0
100
AcDbLine
 10
0.0
 20
0.0
 30
0.0
 11
-1.0
 21
0.0
 31
0.0
  0
CIRCLE
  5
B6
330
82
100
AcDbEntity
  8
0
  6
CONTINUOUS
 62
     0
100
AcDbCircle
 10
0.0
 20
0.0
 30
0.0
 40
0.5
  0
CIRCLE
  5
B7
330
82
100
AcDbEntity
  8
0
  6
CONTINUOUS
 62
     0
100
AcDbCircle
 10
0.0
 20
0.0
 30
0.0
 40
0.25
  0
ENDBLK
  5
84
330
82
100
AcDbEntity
  8
0
100
AcDbBlockEnd
  0
BLOCK
  5
86
330
85
100
AcDbEntity
  8
0
100
AcDbBlockBegin
  2
EX_RCIVIL
 70
     0
 10
0.0
 20
0.0
 30
0.0
  3
EX_RCIVIL
  1

  0
LINE
  5
B8
330
85
100
AcDbEntity
  8
0
  6
CONTINUOUS
 62
     0
100
AcDbLine
 10
0.0
 20
0.0
 30
0.0
 11
-1.0
 21
0.0
 31
0.0
  0
LINE
  5
B9
330
85
100
AcDbEntity
  8
0
  6
CONTINUOUS
 62
     0
100
AcDbLine
 10
-1.0
 20
-0.25
 30
0.0
 11
0.0
 21
-0.25
 31
0.0
  0
LINE
  5
BA
330
85
100
AcDbEntity
  8
0
  6
CONTINUOUS
 62
     0
100
AcDbLine
 10
-1.0
 20
-0.125
 30
0.0
 11
0.0
 21
-0.125
 31
0.0
  0
ENDBLK
  5
87
330
85
100
AcDbEntity
  8
0
100
AcDbBlockEnd
  0
BLOCK
  5
89
330
88
100
AcDbEntity
  8
0
100
AcDbBlockBegin
  2
EX_SLANT
 70
     0
 10
0.0
 20
0.0
 30
0.0
  3
EX_SLANT
  1

  0
LINE
  5
BB
330
88
100
AcDbEntity
  8
0
  6
CONTINUOUS
 62
     0
100
AcDbLine
 10
0.0
 20
0.0
 30
0.0
 11
-1.0
 21
0.0
 31
0.0
  0
LINE
  5
BC
330
88
100
AcDbEntity
  8
0
  6
CONTINUOUS
 62
     0
100
AcDbLine
 10
0.707106781
 20
0.707106781
 30
0.0
 11
-0.707106781
 21
-0.707106781
 31
0.0
  0
ENDBLK
  5
8A
330
88
100
AcDbEntity
  8
0
100
AcDbBlockEnd
  0
BLOCK
  5
8C
330
8B
100
AcDbEntity
  8
0
100
AcDbBlockBegin
  2
EX_NONE
 70
     0
 10
0.0
 20
0.0
 30
0.0
  3
EX_NONE
  1

  0
LINE
  5
BD
330
8B
100
AcDbEntity
  8
0
  6
CONTINUOUS
 62
     0
100
AcDbLine
 10
0.0
 20
0.0
 30
0.0
 11
-1.0
 21
0.0
 31
0.0
  0
ENDBLK
  5
8D
330
8B
100
AcDbEntity
  8
0
100
AcDbBlockEnd
  0
BLOCK
  5
8F
330
8E
100
AcDbEntity
  8
0
100
AcDbBlockBegin
  2
EX_CIVIL
 70
     0
 10
0.0
 20
0.0
 30
0.0
  3
EX_CIVIL
  1

  0
LINE
  5
BE
330
8E
100
AcDbEntity
  8
0
  6
CONTINUOUS
 62
     0
100
AcDbLine
 10
0.0
 20
0.0
 30
0.0
 11
-1.0
 21
0.0
 31
0.0
  0
LINE
  5
BF
330
8E
100
AcDbEntity
  8
0
  6
CONTINUOUS
 62
     0
100
AcDbLine
 10
-1.0
 20
0.25
 30
0.0
 11
0.0
 21
0.25
 31
0.0
  0
LINE
  5
C0
330
8E
100
AcDbEntity
  8
0
  6
CONTINUOUS
 62
     0
100
AcDbLine
 10
-1.0
 20
0.125
 30
0.0
 11
0.0
 21
0.125
 31
0.0
  0
ENDBLK
  5
90
330
8E
100
AcDbEntity
  8
0
100
AcDbBlockEnd
  0
BLOCK
  5
92
330
91
100
AcDbEntity
  8
0
100
AcDbBlockBegin
  2
EX_WCIR
 70
     0
 10
0.0
 20
0.0
 30
0.0
  3
EX_WCIR
  1

  0
LINE
  5
C1
330
91
100
AcDbEntity
  8
0
  6
CONTINUOUS
 62
     0
100
AcDbLine
 10
0.0
 20
0.0
 30
0.0
 11
-1.0
 21
0.0
 31
0.0
  0
CIRCLE
  5
C2
330
91
100
AcDbEntity
  8
0
  6
CONTINUOUS
 62
     0
100
AcDbCircle
 10
0.0
 20
0.0
 30
0.0
 40
0.5
  0
ENDBLK
  5
93
330
91
100
AcDbEntity
  8
0
100
AcDbBlockEnd
  0
BLOCK
  5
95
330
94
100
AcDbEntity
  8
0
100
AcDbBlockBegin
  2
EX_WCIR2
 70
     0
 10
0.0
 20
0.0
 30
0.0
  3
EX_WCIR2
  1

  0
LINE
  5
C3
330
94
100
AcDbEntity
  8
0
  6
CONTINUOUS
 62
     0
100
AcDbLine
 10
-0.5
 20
0.0
 30
0.0
 11
-1.0
 21
0.0
 31
0.0
  0
CIRCLE
  5
C4
330
94
100
AcDbEntity
  8
0
  6
CONTINUOUS
 62
     0
100
AcDbCircle
 10
0.0
 20
0.0
 30
0.0
 40
0.5
  0
ENDBLK
  5
96
330
94
100
AcDbEntity
  8
0
100
AcDbBlockEnd
  0
BLOCK
  5
98
330
97
100
AcDbEntity
  8
0
100
AcDbBlockBegin
  2
EX_WNORM
 70
     0
 10
0.0
 20
0.0
 30
0.0
  3
EX_WNORM
  1

  0
LINE
  5
C5
330
97
100
AcDbEntity
  8
0
  6
CONTINUOUS
 62
     0
100
AcDbLine
 10
-1.0
 20
0.0
 30
0.0
 11
-1.0
 21
0.0
 31
0.0
  0
LINE
  5
C6
330
97
100
AcDbEntity
  8
0
  6
CONTINUOUS
 62
     0
100
AcDbLine
 10
0.0
 20
0.0
 30
0.0
 11
-1.0
 21
0.166666667
 31
0.0
  0
LINE
  5
C7
330
97
100
AcDbEntity
  8
0
  6
CONTINUOUS
 62
     0
100
AcDbLine
 10
0.0
 20
0.0
 30
0.0
 11
-1.0
 21
-0.166666667
 31
0.0
  0
LINE
  5
C8
330
97
100
AcDbEntity
  8
0
  6
CONTINUOUS
 62
     0
100
AcDbLine
 10
-1.0
 20
0.166666667
 30
0.0
 11
-1.0
 21
-0.166666667
 31
0.0
  0
ENDBLK
  5
99
330
97
100
AcDbEntity
  8
0
100
AcDbBlockEnd
  0
BLOCK
  5
9B
330
9A
100
AcDbEntity
  8
0
100
AcDbBlockBegin
  2
EX_NNORM
 70
     0
 10
0.0
 20
0.0
 30
0.0
  3
EX_NNORM
  1

  0
LINE
  5
C9
330
9A
100
AcDbEntity
  8
0
  6
CONTINUOUS
 62
     0
100
AcDbLine
 10
0.0
 20
0.0
 30
0.0
 11
-1.0
 21
0.0
 31
0.0
  0
LINE
  5
CA
330
9A
100
AcDbEntity
  8
0
  6
CONTINUOUS
 62
     0
100
AcDbLine
 10
0.0
 20
0.0
 30
0.0
 11
-1.0
 21
0.166666667
 31
0.0
  0
LINE
  5
CB
330
9A
100
AcDbEntity
  8
0
  6
CONTINUOUS
 62
     0
100
AcDbLine
 10
0.0
 20
0.0
 30
0.0
 11
-1.0
 21
-0.166666667
 31
0.0
  0
LINE
  5
CC
330
9A
100
AcDbEntity
  8
0
  6
CONTINUOUS
 62
     0
100
AcDbLine
 10
-1.0
 20
0.166666667
 30
0.0
 11
-1.0
 21
-0.166666667
 31
0.0
  0
ENDBLK
  5
9C
330
9A
100
AcDbEntity
  8
0
100
AcDbBlockEnd
  0
BLOCK
  5
9E
330
9D
100
AcDbEntity
  8
0
100
AcDbBlockBegin
  2
EX_BBOX
 70
     0
 10
0.0
 20
0.0
 30
0.0
  3
EX_BBOX
  1

  0
LINE
  5
CD
330
9D
100
AcDbEntity
  8
0
  6
CONTINUOUS
 62
     0
100
AcDbLine
 10
0.0
 20
0.0
 30
0.0
 11
-1.0
 21
0.0
 31
0.0
  0
LINE
  5
CE
330
9D
100
AcDbEntity
  8
0
  6
CONTINUOUS
 62
     0
100
AcDbLine
 10
-0.5
 20
0.5
 30
0.0
 11
0.5
 21
0.5
 31
0.0
  0
LINE
  5
CF
330
9D
100
AcDbEntity
  8
0
  6
CONTINUOUS
 62
     0
100
AcDbLine
 10
0.5
 20
0.5
 30
0.0
 11
0.5
 21
-0.5
 31
0.0
  0
LINE
  5
D0
330
9D
100
AcDbEntity
  8
0
  6
CONTINUOUS
 62
     0
100
AcDbLine
 10
0.5
 20
-0.5
 30
0.0
 11
-0.5
 21
-0.5
 31
0.0
  0
LINE
  5
D1
330
9D
100
AcDbEntity
  8
0
  6
CONTINUOUS
 62
     0
100
AcDbLine
 10
-0.5
 20
-0.5
 30
0.0
 11
-0.5
 21
0.5
 31
0.0
  0
LINE
  5
D2
330
9D
100
AcDbEntity
  8
0
  6
CONTINUOUS
 62
     0
100
AcDbLine
 10
-0.25
 20
0.25
 30
0.0
 11
0.25
 21
0.25
 31
0.0
  0
LINE
  5
D3
330
9D
100
AcDbEntity
  8
0
  6
CONTINUOUS
 62
     0
100
AcDbLine
 10
0.25
 20
0.25
 30
0.0
 11
0.25
 21
-0.25
 31
0.0
  0
LINE
  5
D4
330
9D
100
AcDbEntity
  8
0
  6
CONTINUOUS
 62
     0
100
AcDbLine
 10
0.25
 20
-0.25
 30
0.0
 11
-0.25
 21
-0.25
 31
0.0
  0
LINE
  5
D5
330
9D
100
AcDbEntity
  8
0
  6
CONTINUOUS
 62
     0
100
AcDbLine
 10
-0.25
 20
-0.25
 30
0.0
 11
-0.25
 21
0.25
 31
0.0
  0
ENDBLK
  5
9F
330
9D
100
AcDbEntity
  8
0
100
AcDbBlockEnd
  0
BLOCK
  5
A1
330
A0
100
AcDbEntity
  8
0
100
AcDbBlockBegin
  2
EX_WBOX
 70
     0
 10
0.0
 20
0.0
 30
0.0
  3
EX_WBOX
  1

  0
LINE
  5
D6
330
A0
100
AcDbEntity
  8
0
  6
CONTINUOUS
 62
     0
100
AcDbLine
 10
-0.5
 20
0.0
 30
0.0
 11
-1.0
 21
0.0
 31
0.0
  0
LINE
  5
D7
330
A0
100
AcDbEntity
  8
0
  6
CONTINUOUS
 62
     0
100
AcDbLine
 10
-0.5
 20
0.5
 30
0.0
 11
0.5
 21
0.5
 31
0.0
  0
LINE
  5
D8
330
A0
100
AcDbEntity
  8
0
  6
CONTINUOUS
 62
     0
100
AcDbLine
 10
0.5
 20
0.5
 30
0.0
 11
0.5
 21
-0.5
 31
0.0
  0
LINE
  5
D9
330
A0
100
AcDbEntity
  8
0
  6
CONTINUOUS
 62
     0
100
AcDbLine
 10
0.5
 20
-0.5
 30
0.0
 11
-0.5
 21
-0.5
 31
0.0
  0
LINE
  5
DA
330
A0
100
AcDbEntity
  8
0
  6
CONTINUOUS
 62
     0
100
AcDbLine
 10
-0.5
 20
-0.5
 30
0.0
 11
-0.5
 21
0.5
 31
0.0
  0
ENDBLK
  5
A2
330
A0
100
AcDbEntity
  8
0
100
AcDbBlockEnd
  0
BLOCK
  5
A4
330
A3
100
AcDbEntity
  8
0
100
AcDbBlockBegin
  2
EX_INTEGRAL
 70
     0
 10
0.0
 20
0.0
 30
0.0
  3
EX_INTEGRAL
  1

  0
LINE
  5
DB
330
A3
100
AcDbEntity
  8
0
  6
CONTINUOUS
 62
     0
100
AcDbLine
 10
0.0
 20
0.0
 30
0.0
 11
-1.0
 21
0.0
 31
0.0
  0
ARC
  5
DC
330
A3
100
AcDbEntity
  8
0
  6
CONTINUOUS
 62
     0
100
AcDbCircle
 10
0.542115
 20
0.164992
 30
0.0
 40
0.56667
100
AcDbArc
 50
73.07249033629006
 51
196.9275130221199
  0
ARC
  5
DD
330
A3
100
AcDbEntity
  8
0
  6
CONTINUOUS
 62
     0
100
AcDbCircle
 10
-0.542115
 20
-0.164992
 30
0.0
 40
0.56667
100
AcDbArc
 50
253.0724869220464
 51
16.9275130559125
  0
ENDBLK
  5
A5
330
A3
100
AcDbEntity
  8
0
100
AcDbBlockEnd
  0
BLOCK
  5
A7
330
A6
100
AcDbEntity
  8
0
100
AcDbBlockBegin
  2
HN12
 70
     0
 10
0.0
 20
0.0
 30
0.0
  3
HN12
  1

  0
LINE
  5
DE
330
A6
100
AcDbEntity
  8
0
  6
CONTINUOUS
 62
     3
100
AcDbLine
 10
-10.0
 20
-9.000031000000007
 30
0.0
 11
-10.0
 21
8.999968999999993
 31
0.0
  0
LINE
  5
DF
330
A6
100
AcDbEntity
  8
0
  6
CONTINUOUS
 62
     3
100
AcDbLine
 10
-10.0
 20
8.999968999999993
 30
0.0
 11
-8.862732000000051
 21
10.96975699999999
 31
0.0
  0
ARC
  5
E0
330
A6
100
AcDbEntity
  8
0
  6
CONTINUOUS
 62
     3
100
AcDbCircle
 10
3.794768999999974
 20
-0.0006410000000017
 30
0.0
 40
13.794775
100
AcDbArc
 50
156.5695410695425
 51
203.4257430764436
  0
ARC
  5
E1
330
A6
100
AcDbEntity
  8
0
  6
CONTINUOUS
 62
     3
100
AcDbCircle
 10
-3.730133000000023
 20
9.085846000000004
 30
0.0
 40
6.271714
100
AcDbArc
 50
180.7846855482745
 51
215.0556976977886
  0
LINE
  5
E2
330
A6
100
AcDbEntity
  8
0
  6
CONTINUOUS
 62
     3
100
AcDbLine
 10
-10.0
 20
-9.000031000000007
 30
0.0
 11
-8.862732000000051
 21
-10.969818
 31
0.0
  0
ARC
  5
E3
330
A6
100
AcDbEntity
  8
0
  6
CONTINUOUS
 62
     3
100
AcDbCircle
 10
-3.730133000000023
 20
-9.085906999999992
 30
0.0
 40
6.271714
100
AcDbArc
 50
144.9443023022114
 51
179.2153144517255
  0
LINE
  5
E4
330
A6
100
AcDbEntity
  8
0
  6
CONTINUOUS
 62
     3
100
AcDbLine
 10
0.0
 20
10.96969599999997
 30
0.0
 11
0.0
 21
-10.969696
 31
0.0
  0
LINE
  5
E5
330
A6
100
AcDbEntity
  8
0
  6
CONTINUOUS
 62
     3
100
AcDbLine
 10
-8.862732000000051
 20
10.96972700000001
 30
0.0
 11
0.0
 21
10.96969599999997
 31
0.0
  0
LINE
  5
E6
330
A6
100
AcDbEntity
  8
0
  6
CONTINUOUS
 62
     3
100
AcDbLine
 10
-8.862732000000051
 20
5.484740999999985
 30
0.0
 11
-0.0000610000000165
 21
5.484725999999995
 31
0.0
  0
LINE
  5
E7
330
A6
100
AcDbEntity
  8
0
  6
CONTINUOUS
 62
     3
100
AcDbLine
 10
-8.862732000000051
 20
-5.484787000000011
 30
0.0
 11
-0.0000610000000165
 21
-5.484802000000002
 31
0.0
  0
LINE
  5
E8
330
A6
100
AcDbEntity
  8
0
  6
CONTINUOUS
 62
     3
100
AcDbLine
 10
-8.862732000000051
 20
-10.96978799999999
 30
0.0
 11
0.0
 21
-10.96980300000001
 31
0.0
  0
ENDBLK
  5
A8
330
A6
100
AcDbEntity
  8
0
100
AcDbBlockEnd
  0
BLOCK
  5
AA
330
A9
100
AcDbEntity
  8
0
100
AcDbBlockBegin
  2
HBH12
 70
     0
 10
0.0
 20
0.0
 30
0.0
  3
HBH12
  1

  0
LINE
  5
E9
330
A9
100
AcDbEntity
  8
0
  6
CONTINUOUS
 62
     3
100
AcDbLine
 10
-9.5
 20
5.484771999999992
 30
0.0
 11
-9.5
 21
-5.484878000000009
 31
0.0
  0
LINE
  5
EA
330
A9
100
AcDbEntity
  8
0
  6
CONTINUOUS
 62
     3
100
AcDbLine
 10
9.5
 20
-5.484756000000004
 30
0.0
 11
9.5
 21
5.484771999999992
 31
0.0
  0
LINE
  5
EB
330
A9
100
AcDbEntity
  8
0
  6
CONTINUOUS
 62
     3
100
AcDbLine
 10
-0.0000610000000165
 20
10.96975800000001
 30
0.0
 11
9.5
 21
5.484771999999992
 31
0.0
  0
LINE
  5
EC
330
A9
100
AcDbEntity
  8
0
  6
CONTINUOUS
 62
     3
100
AcDbLine
 10
-0.0000610000000165
 20
10.96975800000001
 30
0.0
 11
-9.500061000000017
 21
5.484771999999992
 31
0.0
  0
LINE
  5
ED
330
A9
100
AcDbEntity
  8
0
  6
CONTINUOUS
 62
     3
100
AcDbLine
 10
-9.500061000000017
 20
-5.484878000000009
 30
0.0
 11
0.0
 21
-10.96975699999999
 31
0.0
  0
LINE
  5
EE
330
A9
100
AcDbEntity
  8
0
  6
CONTINUOUS
 62
     3
100
AcDbLine
 10
0.0
 20
-10.96965
 30
0.0
 11
9.5
 21
-5.484756000000004
 31
0.0
  0
CIRCLE
  5
EF
330
A9
100
AcDbEntity
  8
0
  6
CONTINUOUS
 62
     3
100
AcDbCircle
 10
0.0
 20
0.0
 30
0.0
 40
9.0
  0
ENDBLK
  5
AB
330
A9
100
AcDbEntity
  8
0
100
AcDbBlockEnd
  0
ENDSEC
  0
SECTION
  2
ENTITIES
  0
TEXT
  5
F1
330
1F
100
AcDbEntity
  8
LAY-1
  6
CONTINUOUS
 62
     3
100
AcDbText
 10
393.81731409782
 20
334.2700294416301
 30
0.0
 40
4.099863201094392
  1
ＳＴＡＩＮＬＥＳＳ　ＳＴＥＥＬ
 41
0.9999999999999999
  7
EXCADTTF1
 72
     5
 11
483.81731409782
 21
334.2700294416301
 31
0.0
100
AcDbText
  0
TEXT
  5
F2
330
1F
100
AcDbEntity
  8
LAY-1
  6
CONTINUOUS
 62
     3
100
AcDbText
 10
393.81731409782
 20
322.2700294416301
 30
0.0
 40
4.099863201094392
  1
ＳＩＧＨＴ　ＧＬＡＳＳ
 41
0.9999999999999998
  7
EXCADTTF1
 72
     5
 11
459.81731409782
 21
322.2700294416301
 31
0.0
100
AcDbText
  0
TEXT
  5
F3
330
1F
100
AcDbEntity
  8
LAY-1
  6
CONTINUOUS
 62
     3
100
AcDbText
 10
393.81731409782
 20
310.2700294416301
 30
0.0
 40
4.099863201094392
  1
１０ＦＧＰ
 41
0.9999999999999999
  7
EXCADTTF1
 72
     5
 11
423.81731409782
 21
310.2700294416301
 31
0.0
100
AcDbText
  0
TEXT
  5
F4
330
1F
100
AcDbEntity
  8
LAY-1
  6
CONTINUOUS
 62
     3
100
AcDbText
 10
393.81731409782
 20
298.2700294416301
 30
0.0
 40
4.099863201094392
  1
１０Ｋ－４０Ａ
 41
0.9999999999999998
  7
EXCADTTF1
 72
     5
 11
435.81731409782
 21
298.2700294416301
 31
0.0
100
AcDbText
  0
LINE
  5
F5
330
1F
100
AcDbEntity
  8
LAY-1
  6
EXLTYPE2
 62
     1
100
AcDbLine
 10
172.5
 20
385.0
 30
0.0
 11
172.5
 21
253.0
 31
0.0
  0
CIRCLE
  5
F6
330
1F
100
AcDbEntity
  8
LAY-1
  6
CONTINUOUS
 62
     3
100
AcDbCircle
 10
172.5
 20
319.0
 30
0.0
 40
21.30000000000001
  0
LINE
  5
F7
330
1F
100
AcDbEntity
  8
LAY-1
  6
CONTINUOUS
 62
     3
100
AcDbLine
 10
148.1999999999997
 20
152.8000000000003
 30
0.0
 11
145.1999999999995
 21
149.8000000000002
 31
0.0
  0
LINE
  5
F8
330
1F
100
AcDbEntity
  8
LAY-1
  6
CONTINUOUS
 62
     3
100
AcDbLine
 10
196.8000000000004
 20
152.8000000000003
 30
0.0
 11
199.8000000000007
 21
149.8000000000002
 31
0.0
  0
LINE
  5
F9
330
1F
100
AcDbEntity
  8
LAY-1
  6
CONTINUOUS
 62
     3
100
AcDbLine
 10
148.1999999999998
 20
98.19999999999979
 30
0.0
 11
145.1999999999995
 21
101.1999999999999
 31
0.0
  0
LINE
  5
FA
330
1F
100
AcDbEntity
  8
LAY-1
  6
CONTINUOUS
 62
     3
100
AcDbLine
 10
196.8000000000005
 20
98.19999999999982
 30
0.0
 11
199.8000000000007
 21
101.1999999999999
 31
0.0
  0
LINE
  5
FB
330
1F
100
AcDbEntity
  8
LAY-1
  6
CONTINUOUS
 62
     3
100
AcDbLine
 10
148.1999999999999
 20
180.5000000000009
 30
0.0
 11
145.2000000000006
 21
183.5000000000002
 31
0.0
  0
LINE
  5
FC
330
1F
100
AcDbEntity
  8
LAY-1
  6
CONTINUOUS
 62
     3
100
AcDbLine
 10
196.8000000000002
 20
180.5000000000009
 30
0.0
 11
199.7999999999996
 21
183.5000000000002
 31
0.0
  0
LINE
  5
FD
330
1F
100
AcDbEntity
  8
LAY-1
  6
CONTINUOUS
 62
     3
100
AcDbLine
 10
112.5000000000001
 20
195.5000000000002
 30
0.0
 11
112.5000000000001
 21
183.5000000000002
 31
0.0
  0
LINE
  5
FE
330
1F
100
AcDbEntity
  8
LAY-1
  6
CONTINUOUS
 62
     3
100
AcDbLine
 10
250.5000000000001
 20
149.8
 30
0.0
 11
250.5000000000001
 21
150.05
 31
0.0
  0
LINE
  5
FF
330
1F
100
AcDbEntity
  8
LAY-1
  6
CONTINUOUS
 62
     3
100
AcDbLine
 10
256.5000000000001
 20
101.2
 30
0.0
 11
256.5000000000001
 21
100.95
 31
0.0
  0
LINE
  5
100
330
1F
100
AcDbEntity
  8
LAY-1
  6
CONTINUOUS
 62
     3
100
AcDbLine
 10
253.4999999999991
 20
149.800000000001
 30
0.0
 11
256.5000000000001
 21
152.800000000002
 31
0.0
  0
LINE
  5
101
330
1F
100
AcDbEntity
  8
LAY-1
  6
CONTINUOUS
 62
     3
100
AcDbLine
 10
253.4999999999991
 20
101.199999999999
 30
0.0
 11
256.5000000000001
 21
98.199999999998
 31
0.0
  0
LINE
  5
102
330
1F
100
AcDbEntity
  8
LAY-1
  6
CONTINUOUS
 62
     3
100
AcDbLine
 10
272.5000000000001
 20
166.0000000000001
 30
0.0
 11
270.5000000000001
 21
166.0000000000001
 31
0.0
  0
LINE
  5
103
330
1F
100
AcDbEntity
  8
LAY-1
  6
CONTINUOUS
 62
     3
100
AcDbLine
 10
272.5000000000001
 20
85.00000000000007
 30
0.0
 11
270.5000000000001
 21
85.00000000000007
 31
0.0
  0
LINE
  5
104
330
1F
100
AcDbEntity
  8
LAY-1
  6
CONTINUOUS
 62
     3
100
AcDbLine
 10
256.5000000000001
 20
195.5
 30
0.0
 11
270.5000000000001
 21
195.5
 31
0.0
  0
LINE
  5
105
330
1F
100
AcDbEntity
  8
LAY-1
  6
CONTINUOUS
 62
     3
100
AcDbLine
 10
256.5000000000001
 20
55.50000000000003
 30
0.0
 11
270.5000000000001
 21
55.50000000000003
 31
0.0
  0
LINE
  5
106
330
1F
100
AcDbEntity
  8
LAY-1
  6
EXLTYPE0
 62
     1
100
AcDbLine
 10
250.5
 20
73.00000000000006
 30
0.0
 11
276.0
 21
73.00000000000003
 31
0.0
  0
LINE
  5
107
330
1F
100
AcDbEntity
  8
LAY-1
  6
EXLTYPE0
 62
     1
100
AcDbLine
 10
253.5
 20
178.0000000000001
 30
0.0
 11
276.0
 21
178.0000000000001
 31
0.0
  0
LINE
  5
108
330
1F
100
AcDbEntity
  8
LAY-1
  6
CONTINUOUS
 62
     3
100
AcDbLine
 10
88.49999999999989
 20
101.2
 30
0.0
 11
88.49999999999989
 21
100.95
 31
0.0
  0
LINE
  5
109
330
1F
100
AcDbEntity
  8
LAY-1
  6
CONTINUOUS
 62
     3
100
AcDbLine
 10
91.50000000000091
 20
149.800000000001
 30
0.0
 11
88.49999999999989
 21
152.800000000002
 31
0.0
  0
LINE
  5
10A
330
1F
100
AcDbEntity
  8
LAY-1
  6
CONTINUOUS
 62
     3
100
AcDbLine
 10
91.50000000000091
 20
101.199999999999
 30
0.0
 11
88.49999999999989
 21
98.199999999998
 31
0.0
  0
LINE
  5
10B
330
1F
100
AcDbEntity
  8
LAY-1
  6
CONTINUOUS
 62
     3
100
AcDbLine
 10
72.49999999999989
 20
166.0000000000001
 30
0.0
 11
74.49999999999994
 21
166.0000000000001
 31
0.0
  0
LINE
  5
10C
330
1F
100
AcDbEntity
  8
LAY-1
  6
CONTINUOUS
 62
     3
100
AcDbLine
 10
72.49999999999989
 20
85.00000000000009
 30
0.0
 11
74.49999999999989
 21
85.00000000000009
 31
0.0
  0
LINE
  5
10D
330
1F
100
AcDbEntity
  8
LAY-1
  6
CONTINUOUS
 62
     3
100
AcDbLine
 10
88.49999999999989
 20
195.5
 30
0.0
 11
74.49999999999994
 21
195.5
 31
0.0
  0
LINE
  5
10E
330
1F
100
AcDbEntity
  8
LAY-1
  6
CONTINUOUS
 62
     3
100
AcDbLine
 10
88.49999999999983
 20
55.50000000000006
 30
0.0
 11
74.49999999999989
 21
55.50000000000006
 31
0.0
  0
LINE
  5
10F
330
1F
100
AcDbEntity
  8
LAY-1
  6
EXLTYPE0
 62
     1
100
AcDbLine
 10
94.5
 20
178.0000000000001
 30
0.0
 11
69.0
 21
178.0000000000001
 31
0.0
  0
LINE
  5
110
330
1F
100
AcDbEntity
  8
LAY-1
  6
EXLTYPE0
 62
     1
100
AcDbLine
 10
94.5
 20
73.00000000000009
 30
0.0
 11
69.0
 21
73.00000000000006
 31
0.0
  0
LINE
  5
111
330
1F
100
AcDbEntity
  8
LAY-1
  6
EXLTYPE2
 62
     1
100
AcDbLine
 10
65.0
 20
125.5
 30
0.0
 11
279.0
 21
125.5000000000001
 31
0.0
  0
CIRCLE
  5
112
330
1F
100
AcDbEntity
  8
LAY-1
  6
CONTINUOUS
 62
     3
100
AcDbCircle
 10
172.5
 20
319.0
 30
0.0
 40
60.00000000000001
  0
LINE
  5
113
330
1F
100
AcDbEntity
  8
LAY-1
  6
CONTINUOUS
 62
     3
100
AcDbLine
 10
88.49999999999989
 20
294.7
 30
0.0
 11
88.49999999999989
 21
294.45
 31
0.0
  0
LINE
  5
114
330
1F
100
AcDbEntity
  8
LAY-1
  6
CONTINUOUS
 62
     3
100
AcDbLine
 10
91.50000000000091
 20
343.300000000001
 30
0.0
 11
88.49999999999989
 21
346.300000000002
 31
0.0
  0
LINE
  5
115
330
1F
100
AcDbEntity
  8
LAY-1
  6
CONTINUOUS
 62
     3
100
AcDbLine
 10
91.50000000000091
 20
294.699999999999
 30
0.0
 11
88.49999999999989
 21
291.699999999998
 31
0.0
  0
LINE
  5
116
330
1F
100
AcDbEntity
  8
LAY-1
  6
CONTINUOUS
 62
     3
100
AcDbLine
 10
72.49999999999989
 20
359.5000000000001
 30
0.0
 11
74.49999999999994
 21
359.5000000000001
 31
0.0
  0
LINE
  5
117
330
1F
100
AcDbEntity
  8
LAY-1
  6
CONTINUOUS
 62
     3
100
AcDbLine
 10
72.49999999999989
 20
278.5000000000001
 30
0.0
 11
74.49999999999989
 21
278.5000000000001
 31
0.0
  0
LINE
  5
118
330
1F
100
AcDbEntity
  8
LAY-1
  6
CONTINUOUS
 62
     3
100
AcDbLine
 10
88.49999999999989
 20
388.9999999999999
 30
0.0
 11
74.49999999999994
 21
388.9999999999999
 31
0.0
  0
LINE
  5
119
330
1F
100
AcDbEntity
  8
LAY-1
  6
CONTINUOUS
 62
     3
100
AcDbLine
 10
88.49999999999983
 20
249.0000000000001
 30
0.0
 11
74.49999999999989
 21
249.0000000000001
 31
0.0
  0
LINE
  5
11A
330
1F
100
AcDbEntity
  8
LAY-1
  6
EXLTYPE0
 62
     1
100
AcDbLine
 10
94.5
 20
371.5000000000001
 30
0.0
 11
69.0
 21
371.5000000000001
 31
0.0
  0
LINE
  5
11B
330
1F
100
AcDbEntity
  8
LAY-1
  6
EXLTYPE0
 62
     1
100
AcDbLine
 10
94.5
 20
266.5000000000001
 30
0.0
 11
69.0
 21
266.5000000000001
 31
0.0
  0
LINE
  5
11C
330
1F
100
AcDbEntity
  8
LAY-1
  6
CONTINUOUS
 62
     3
100
AcDbLine
 10
91.5
 20
343.3
 30
0.0
 11
117.6409989154013
 21
343.3
 31
0.0
  0
LINE
  5
11D
330
1F
100
AcDbEntity
  8
LAY-1
  6
CONTINUOUS
 62
     3
100
AcDbLine
 10
91.5
 20
294.7
 30
0.0
 11
117.6409989154013
 21
294.7
 31
0.0
  0
LINE
  5
11E
330
1F
100
AcDbEntity
  8
LAY-1
  6
CONTINUOUS
 62
     3
100
AcDbLine
 10
256.5000000000001
 20
294.7
 30
0.0
 11
256.5000000000001
 21
294.45
 31
0.0
  0
LINE
  5
11F
330
1F
100
AcDbEntity
  8
LAY-1
  6
CONTINUOUS
 62
     3
100
AcDbLine
 10
253.4999999999991
 20
343.300000000001
 30
0.0
 11
256.5000000000001
 21
346.300000000002
 31
0.0
  0
LINE
  5
120
330
1F
100
AcDbEntity
  8
LAY-1
  6
CONTINUOUS
 62
     3
100
AcDbLine
 10
253.4999999999991
 20
294.699999999999
 30
0.0
 11
256.5000000000001
 21
291.699999999998
 31
0.0
  0
LINE
  5
121
330
1F
100
AcDbEntity
  8
LAY-1
  6
CONTINUOUS
 62
     3
100
AcDbLine
 10
272.5000000000001
 20
359.5000000000001
 30
0.0
 11
270.5000000000001
 21
359.5000000000001
 31
0.0
  0
LINE
  5
122
330
1F
100
AcDbEntity
  8
LAY-1
  6
CONTINUOUS
 62
     3
100
AcDbLine
 10
272.5000000000001
 20
278.5000000000001
 30
0.0
 11
270.5000000000001
 21
278.5000000000001
 31
0.0
  0
LINE
  5
123
330
1F
100
AcDbEntity
  8
LAY-1
  6
CONTINUOUS
 62
     3
100
AcDbLine
 10
256.5000000000001
 20
388.9999999999999
 30
0.0
 11
270.5000000000001
 21
388.9999999999999
 31
0.0
  0
LINE
  5
124
330
1F
100
AcDbEntity
  8
LAY-1
  6
CONTINUOUS
 62
     3
100
AcDbLine
 10
256.5000000000001
 20
249.0
 30
0.0
 11
270.5000000000001
 21
249.0
 31
0.0
  0
LINE
  5
125
330
1F
100
AcDbEntity
  8
LAY-1
  6
EXLTYPE0
 62
     1
100
AcDbLine
 10
250.5
 20
371.5000000000001
 30
0.0
 11
276.0
 21
371.5000000000001
 31
0.0
  0
LINE
  5
126
330
1F
100
AcDbEntity
  8
LAY-1
  6
EXLTYPE0
 62
     1
100
AcDbLine
 10
250.5
 20
266.5000000000001
 30
0.0
 11
276.0
 21
266.5
 31
0.0
  0
LINE
  5
127
330
1F
100
AcDbEntity
  8
LAY-1
  6
CONTINUOUS
 62
     3
100
AcDbLine
 10
253.5
 20
343.3
 30
0.0
 11
227.3590010845986
 21
343.3
 31
0.0
  0
LINE
  5
128
330
1F
100
AcDbEntity
  8
LAY-1
  6
CONTINUOUS
 62
     3
100
AcDbLine
 10
253.5
 20
294.7
 30
0.0
 11
227.3590010845987
 21
294.7
 31
0.0
  0
LINE
  5
129
330
1F
100
AcDbEntity
  8
LAY-1
  6
EXLTYPE2
 62
     1
100
AcDbLine
 10
65.5
 20
319.0
 30
0.0
 11
280.5
 21
319.0000000000001
 31
0.0
  0
CIRCLE
  5
12A
330
1F
100
AcDbEntity
  8
LAY-1
  6
CONTINUOUS
 62
     3
100
AcDbCircle
 10
474.72310601229
 20
162.62310601229
 30
0.0
 40
9.5
  0
LINE
  5
12B
330
1F
100
AcDbEntity
  8
LAY-1
  6
EXLTYPE0
 62
     1
100
AcDbLine
 10
464.6000000000006
 20
152.4999999999993
 30
0.0
 11
484.1000000000006
 21
171.9999999999993
 31
0.0
  0
LINE
  5
12C
330
1F
100
AcDbEntity
  8
LAY-1
  6
EXLTYPE0
 62
     1
100
AcDbLine
 10
464.6000000000006
 20
98.50000000000064
 30
0.0
 11
484.1000000000006
 21
79.00000000000068
 31
0.0
  0
CIRCLE
  5
12D
330
1F
100
AcDbEntity
  8
LAY-1
  6
CONTINUOUS
 62
     3
100
AcDbCircle
 10
474.72310601229
 20
88.37689398770999
 30
0.0
 40
9.5
  0
CIRCLE
  5
12E
330
1F
100
AcDbEntity
  8
LAY-1
  6
EXLTYPE2
 62
     1
100
AcDbCircle
 10
437.6
 20
125.5
 30
0.0
 40
52.50000000000004
  0
CIRCLE
  5
12F
330
1F
100
AcDbEntity
  8
LAY-1
  6
CONTINUOUS
 62
     3
100
AcDbCircle
 10
437.6
 20
125.5
 30
0.0
 40
21.55000000000001
  0
CIRCLE
  5
130
330
1F
100
AcDbEntity
  8
LAY-1
  6
CONTINUOUS
 62
     3
100
AcDbCircle
 10
437.6
 20
125.5
 30
0.0
 40
40.5
  0
CIRCLE
  5
131
330
1F
100
AcDbEntity
  8
LAY-1
  6
CONTINUOUS
 62
     3
100
AcDbCircle
 10
437.6
 20
125.5
 30
0.0
 40
70.0
  0
LINE
  5
132
330
1F
100
AcDbEntity
  8
LAY-1
  6
EXLTYPE2
 62
     1
100
AcDbLine
 10
357.0
 20
125.5
 30
0.0
 11
520.0
 21
125.5
 31
0.0
  0
CIRCLE
  5
133
330
1F
100
AcDbEntity
  8
LAY-1
  6
CONTINUOUS
 62
     3
100
AcDbCircle
 10
400.47689398771
 20
162.62310601229
 30
0.0
 40
9.5
  0
LINE
  5
134
330
1F
100
AcDbEntity
  8
LAY-1
  6
EXLTYPE0
 62
     1
100
AcDbLine
 10
410.5999999999993
 20
152.4999999999993
 30
0.0
 11
391.0999999999993
 21
171.9999999999993
 31
0.0
  0
LINE
  5
135
330
1F
100
AcDbEntity
  8
LAY-1
  6
EXLTYPE0
 62
     1
100
AcDbLine
 10
410.5999999999993
 20
98.50000000000064
 30
0.0
 11
391.0999999999992
 21
79.0000000000007
 31
0.0
  0
CIRCLE
  5
136
330
1F
100
AcDbEntity
  8
LAY-1
  6
CONTINUOUS
 62
     3
100
AcDbCircle
 10
400.4768939877099
 20
88.37689398771
 30
0.0
 40
9.5
  0
LINE
  5
137
330
1F
100
AcDbEntity
  8
LAY-1
  6
CONTINUOUS
 62
     3
100
AcDbLine
 10
72.49999999999989
 20
85.0
 30
0.0
 11
72.49999999999989
 21
166.0000000000001
 31
0.0
  0
LINE
  5
138
330
1F
100
AcDbEntity
  8
LAY-1
  6
CONTINUOUS
 62
     3
100
AcDbLine
 10
74.49999999999996
 20
55.5
 30
0.0
 11
74.49999999999994
 21
195.5
 31
0.0
  0
LINE
  5
139
330
1F
100
AcDbEntity
  8
LAY-1
  6
CONTINUOUS
 62
     3
100
AcDbLine
 10
88.4999999999999
 20
55.5
 30
0.0
 11
88.49999999999989
 21
195.5
 31
0.0
  0
LINE
  5
13A
330
1F
100
AcDbEntity
  8
LAY-1
  6
CONTINUOUS
 62
     3
100
AcDbLine
 10
256.5000000000001
 20
55.5
 30
0.0
 11
256.5000000000001
 21
195.5
 31
0.0
  0
LINE
  5
13B
330
1F
100
AcDbEntity
  8
LAY-1
  6
CONTINUOUS
 62
     3
100
AcDbLine
 10
270.5000000000001
 20
55.5
 30
0.0
 11
270.5000000000001
 21
195.5
 31
0.0
  0
LINE
  5
13C
330
1F
100
AcDbEntity
  8
LAY-1
  6
CONTINUOUS
 62
     3
100
AcDbLine
 10
272.5000000000001
 20
85.0
 30
0.0
 11
272.5000000000001
 21
166.0000000000001
 31
0.0
  0
LINE
  5
13D
330
1F
100
AcDbEntity
  8
LAY-1
  6
CONTINUOUS
 62
     3
100
AcDbLine
 10
72.49999999999989
 20
278.5
 30
0.0
 11
72.49999999999989
 21
359.5000000000001
 31
0.0
  0
LINE
  5
13E
330
1F
100
AcDbEntity
  8
LAY-1
  6
CONTINUOUS
 62
     3
100
AcDbLine
 10
74.49999999999996
 20
249.0
 30
0.0
 11
74.49999999999994
 21
388.9999999999999
 31
0.0
  0
LINE
  5
13F
330
1F
100
AcDbEntity
  8
LAY-1
  6
CONTINUOUS
 62
     3
100
AcDbLine
 10
88.4999999999999
 20
249.0
 30
0.0
 11
88.49999999999989
 21
388.9999999999999
 31
0.0
  0
LINE
  5
140
330
1F
100
AcDbEntity
  8
LAY-1
  6
CONTINUOUS
 62
     3
100
AcDbLine
 10
91.5
 20
343.3
 30
0.0
 11
91.5
 21
294.7
 31
0.0
  0
LINE
  5
141
330
1F
100
AcDbEntity
  8
LAY-1
  6
CONTINUOUS
 62
     3
100
AcDbLine
 10
253.5
 20
343.3
 30
0.0
 11
253.5
 21
294.7
 31
0.0
  0
LINE
  5
142
330
1F
100
AcDbEntity
  8
LAY-1
  6
CONTINUOUS
 62
     3
100
AcDbLine
 10
256.5000000000001
 20
249.0
 30
0.0
 11
256.5000000000001
 21
388.9999999999999
 31
0.0
  0
LINE
  5
143
330
1F
100
AcDbEntity
  8
LAY-1
  6
CONTINUOUS
 62
     3
100
AcDbLine
 10
270.5000000000001
 20
249.0
 30
0.0
 11
270.5000000000001
 21
388.9999999999999
 31
0.0
  0
LINE
  5
144
330
1F
100
AcDbEntity
  8
LAY-1
  6
CONTINUOUS
 62
     3
100
AcDbLine
 10
272.5000000000001
 20
278.5
 30
0.0
 11
272.5000000000001
 21
359.5000000000001
 31
0.0
  0
LINE
  5
145
330
1F
100
AcDbEntity
  8
LAY-1
  6
CONTINUOUS
 62
     3
100
AcDbLine
 10
232.5
 20
195.5000000000003
 30
0.0
 11
112.5000000000001
 21
195.5000000000003
 31
0.0
  0
LINE
  5
146
330
1F
100
AcDbEntity
  8
LAY-1
  6
CONTINUOUS
 62
     3
100
AcDbLine
 10
232.5
 20
183.5000000000002
 30
0.0
 11
112.5000000000001
 21
183.5000000000002
 31
0.0
  0
LINE
  5
147
330
1F
100
AcDbEntity
  8
LAY-1
  6
CONTINUOUS
 62
     3
100
AcDbLine
 10
196.8000000000003
 20
98.19999999999963
 30
0.0
 11
196.8000000000003
 21
70.499999999999
 31
0.0
  0
LINE
  5
148
330
1F
100
AcDbEntity
  8
LAY-1
  6
CONTINUOUS
 62
     3
100
AcDbLine
 10
148.1999999999999
 20
98.19999999999962
 30
0.0
 11
148.1999999999999
 21
70.499999999999
 31
0.0
  0
LINE
  5
149
330
1F
100
AcDbEntity
  8
LAY-1
  6
CONTINUOUS
 62
     3
100
AcDbLine
 10
148.1999999999999
 20
152.8000000000004
 30
0.0
 11
148.1999999999999
 21
180.5
 31
0.0
  0
LINE
  5
14A
330
1F
100
AcDbEntity
  8
LAY-1
  6
CONTINUOUS
 62
     3
100
AcDbLine
 10
196.8000000000002
 20
152.8000000000004
 30
0.0
 11
196.8000000000003
 21
180.5
 31
0.0
  0
LINE
  5
14B
330
1F
100
AcDbEntity
  8
LAY-1
  6
CONTINUOUS
 62
     3
100
AcDbLine
 10
91.500000000002
 20
149.8
 30
0.0
 11
91.500000000002
 21
101.2
 31
0.0
  0
LINE
  5
14C
330
1F
100
AcDbEntity
  8
LAY-1
  6
CONTINUOUS
 62
     3
100
AcDbLine
 10
253.5
 20
149.8
 30
0.0
 11
253.5
 21
101.2
 31
0.0
  0
LINE
  5
14D
330
1F
100
AcDbEntity
  8
LAY-1
  6
CONTINUOUS
 62
     3
100
AcDbLine
 10
148.2
 20
180.5
 30
0.0
 11
196.8
 21
180.5
 31
0.0
  0
LINE
  5
14E
330
1F
100
AcDbEntity
  8
LAY-1
  6
CONTINUOUS
 62
     3
100
AcDbLine
 10
253.5
 20
149.8
 30
0.0
 11
199.8
 21
149.7999999999999
 31
0.0
  0
LINE
  5
14F
330
1F
100
AcDbEntity
  8
LAY-1
  6
CONTINUOUS
 62
     3
100
AcDbLine
 10
91.500000000002
 20
149.8
 30
0.0
 11
145.2
 21
149.8000000000002
 31
0.0
  0
LINE
  5
150
330
1F
100
AcDbEntity
  8
LAY-1
  6
CONTINUOUS
 62
     3
100
AcDbLine
 10
91.500000000002
 20
101.2
 30
0.0
 11
145.1999999999999
 21
101.2
 31
0.0
  0
LINE
  5
151
330
1F
100
AcDbEntity
  8
LAY-1
  6
CONTINUOUS
 62
     3
100
AcDbLine
 10
253.5
 20
101.2000000000001
 30
0.0
 11
199.8
 21
101.2000000000001
 31
0.0
  0
LINE
  5
152
330
1F
100
AcDbEntity
  8
LAY-1
  6
CONTINUOUS
 62
     3
100
AcDbLine
 10
196.8
 20
152.8
 30
0.0
 11
172.5
 21
128.5
 31
0.0
  0
LINE
  5
153
330
1F
100
AcDbEntity
  8
LAY-1
  6
CONTINUOUS
 62
     3
100
AcDbLine
 10
169.5
 20
125.5
 30
0.0
 11
145.2
 21
101.2
 31
0.0
  0
LINE
  5
154
330
1F
100
AcDbEntity
  8
LAY-1
  6
CONTINUOUS
 62
     3
100
AcDbLine
 10
148.2
 20
152.8
 30
0.0
 11
172.5
 21
128.5
 31
0.0
  0
LINE
  5
155
330
1F
100
AcDbEntity
  8
LAY-1
  6
CONTINUOUS
 62
     3
100
AcDbLine
 10
175.5
 20
125.5
 30
0.0
 11
199.8
 21
101.2
 31
0.0
  0
LINE
  5
156
330
1F
100
AcDbEntity
  8
LAY-1
  6
CONTINUOUS
 62
     3
100
AcDbLine
 10
199.8
 20
149.8
 30
0.0
 11
175.5
 21
125.5
 31
0.0
  0
LINE
  5
157
330
1F
100
AcDbEntity
  8
LAY-1
  6
CONTINUOUS
 62
     3
100
AcDbLine
 10
172.5
 20
122.5
 30
0.0
 11
148.2
 21
98.2
 31
0.0
  0
LINE
  5
158
330
1F
100
AcDbEntity
  8
LAY-1
  6
CONTINUOUS
 62
     3
100
AcDbLine
 10
145.2
 20
149.8
 30
0.0
 11
169.5
 21
125.5
 31
0.0
  0
LINE
  5
159
330
1F
100
AcDbEntity
  8
LAY-1
  6
CONTINUOUS
 62
     3
100
AcDbLine
 10
172.5
 20
122.5
 30
0.0
 11
196.8000000000003
 21
98.19999999999969
 31
0.0
  0
LINE
  5
15A
330
1F
100
AcDbEntity
  8
LAY-1
  6
CONTINUOUS
 62
     3
100
AcDbLine
 10
172.5
 20
211.5000000000001
 30
0.0
 11
112.500024
 21
211.5000000000001
 31
0.0
  0
LINE
  5
15B
330
1F
100
AcDbEntity
  8
LAY-1
  6
CONTINUOUS
 62
     3
100
AcDbLine
 10
172.5
 20
211.5000000000001
 30
0.0
 11
232.499955
 21
211.5000000000001
 31
0.0
  0
LINE
  5
15C
330
1F
100
AcDbEntity
  8
LAY-1
  6
CONTINUOUS
 62
     3
100
AcDbLine
 10
172.5
 20
199.5
 30
0.0
 11
112.5000159999999
 21
199.5
 31
0.0
  0
LINE
  5
15D
330
1F
100
AcDbEntity
  8
LAY-1
  6
CONTINUOUS
 62
     3
100
AcDbLine
 10
172.5
 20
199.5
 30
0.0
 11
232.500016
 21
199.5
 31
0.0
  0
LINE
  5
15E
330
1F
100
AcDbEntity
  8
LAY-1
  6
CONTINUOUS
 62
     3
100
AcDbLine
 10
214.030289
 20
211.5000000000001
 30
0.0
 11
232.500016
 21
211.5000000000001
 31
0.0
  0
LINE
  5
15F
330
1F
100
AcDbEntity
  8
LAY-1
  6
CONTINUOUS
 62
     3
100
AcDbLine
 10
112.5000159999999
 20
199.5
 30
0.0
 11
112.5000159999999
 21
211.5000000000001
 31
0.0
  0
LINE
  5
160
330
1F
100
AcDbEntity
  8
LAY-1
  6
CONTINUOUS
 62
     3
100
AcDbLine
 10
140.0
 20
195.5000000000003
 30
0.0
 11
140.0
 21
199.5
 31
0.0
  0
LINE
  5
161
330
1F
100
AcDbEntity
  8
LAY-1
  6
CONTINUOUS
 62
     3
100
AcDbLine
 10
205.0000000000001
 20
195.5000000000003
 30
0.0
 11
205.0000000000001
 21
199.5
 31
0.0
  0
LINE
  5
162
330
1F
100
AcDbEntity
  8
LAY-1
  6
CONTINUOUS
 62
     3
100
AcDbLine
 10
135.7500000000001
 20
180.5000000000001
 30
0.0
 11
114.25
 21
180.5000000000001
 31
0.0
  0
LINE
  5
163
330
1F
100
AcDbEntity
  8
LAY-1
  6
CONTINUOUS
 62
     3
100
AcDbLine
 10
135.7500000000001
 20
180.5000000000001
 30
0.0
 11
135.7500000000001
 21
183.5000000000001
 31
0.0
  0
LINE
  5
164
330
1F
100
AcDbEntity
  8
LAY-1
  6
CONTINUOUS
 62
     3
100
AcDbLine
 10
114.2500000000001
 20
180.5000000000001
 30
0.0
 11
114.2500000000001
 21
183.5000000000002
 31
0.0
  0
LINE
  5
165
330
1F
100
AcDbEntity
  8
LAY-1
  6
CONTINUOUS
 62
     3
100
AcDbLine
 10
135.969696
 20
211.5
 30
0.0
 11
114.030304
 21
211.5
 31
0.0
  0
LINE
  5
166
330
1F
100
AcDbEntity
  8
LAY-1
  6
CONTINUOUS
 62
     3
100
AcDbLine
 10
115.99997
 20
219.5
 30
0.0
 11
133.99997
 21
219.5
 31
0.0
  0
LINE
  5
167
330
1F
100
AcDbEntity
  8
LAY-1
  6
CONTINUOUS
 62
     3
100
AcDbLine
 10
133.99997
 20
219.5
 30
0.0
 11
135.969758
 21
218.362732
 31
0.0
  0
ARC
  5
168
330
1F
100
AcDbEntity
  8
LAY-1
  6
CONTINUOUS
 62
     3
100
AcDbCircle
 10
124.99936
 20
205.70523
 30
0.0
 40
13.794775
100
AcDbArc
 50
66.5695410695425
 51
113.4257430764437
  0
ARC
  5
169
330
1F
100
AcDbEntity
  8
LAY-1
  6
CONTINUOUS
 62
     3
100
AcDbCircle
 10
134.085846
 20
213.230133
 30
0.0
 40
6.271714
100
AcDbArc
 50
90.78468554827452
 51
125.0556976977885
  0
LINE
  5
16A
330
1F
100
AcDbEntity
  8
LAY-1
  6
CONTINUOUS
 62
     3
100
AcDbLine
 10
115.99997
 20
219.5
 30
0.0
 11
114.030182
 21
218.362732
 31
0.0
  0
ARC
  5
16B
330
1F
100
AcDbEntity
  8
LAY-1
  6
CONTINUOUS
 62
     3
100
AcDbCircle
 10
115.914093
 20
213.230133
 30
0.0
 40
6.271714
100
AcDbArc
 50
54.94430230221137
 51
89.21531445172552
  0
LINE
  5
16C
330
1F
100
AcDbEntity
  8
LAY-1
  6
CONTINUOUS
 62
     3
100
AcDbLine
 10
135.969696
 20
211.5
 30
0.0
 11
135.969727
 21
218.362732
 31
0.0
  0
LINE
  5
16D
330
1F
100
AcDbEntity
  8
LAY-1
  6
CONTINUOUS
 62
     3
100
AcDbLine
 10
130.484711
 20
211.500061
 30
0.0
 11
130.484742
 21
218.362732
 31
0.0
  0
LINE
  5
16E
330
1F
100
AcDbEntity
  8
LAY-1
  6
CONTINUOUS
 62
     3
100
AcDbLine
 10
119.515198
 20
211.500061
 30
0.0
 11
119.515213
 21
218.362732
 31
0.0
  0
LINE
  5
16F
330
1F
100
AcDbEntity
  8
LAY-1
  6
CONTINUOUS
 62
     3
100
AcDbLine
 10
114.030198
 20
211.5
 30
0.0
 11
114.030213
 21
218.362732
 31
0.0
  0
LINE
  5
170
330
1F
100
AcDbEntity
  8
LAY-1
  6
CONTINUOUS
 62
     3
100
AcDbLine
 10
118.99997
 20
196.5
 30
0.0
 11
130.99997
 21
196.5
 31
0.0
  0
LINE
  5
171
330
1F
100
AcDbEntity
  8
LAY-1
  6
CONTINUOUS
 62
     3
100
AcDbLine
 10
120.999955
 20
166.5
 30
0.0
 11
128.99997
 21
166.5
 31
0.0
  0
LINE
  5
172
330
1F
100
AcDbEntity
  8
LAY-1
  6
CONTINUOUS
 62
     3
100
AcDbLine
 10
130.99997
 20
168.5
 30
0.0
 11
128.99997
 21
166.5
 31
0.0
  0
LINE
  5
173
330
1F
100
AcDbEntity
  8
LAY-1
  6
CONTINUOUS
 62
     3
100
AcDbLine
 10
118.999955
 20
168.5
 30
0.0
 11
130.99997
 21
168.5
 31
0.0
  0
LINE
  5
174
330
1F
100
AcDbEntity
  8
LAY-1
  6
CONTINUOUS
 62
     1
100
AcDbLine
 10
130.99997
 20
199.125
 30
0.0
 11
130.052948
 21
196.5
 31
0.0
  0
LINE
  5
175
330
1F
100
AcDbEntity
  8
LAY-1
  6
CONTINUOUS
 62
     3
100
AcDbLine
 10
118.99997
 20
168.5
 30
0.0
 11
120.99997
 21
166.5
 31
0.0
  0
LINE
  5
176
330
1F
100
AcDbEntity
  8
LAY-1
  6
CONTINUOUS
 62
     1
100
AcDbLine
 10
118.99997
 20
199.125
 30
0.0
 11
119.946991
 21
196.5
 31
0.0
  0
INSERT
  5
177
330
1F
100
AcDbEntity
  8
LAY-1
  6
CONTINUOUS
 62
     0
100
AcDbBlockReference
  2
HN12
 10
125.0
 20
180.5
 30
0.0
 50
90.0
  0
ARC
  5
178
330
1F
100
AcDbEntity
  8
LAY-1
  6
CONTINUOUS
 62
     3
100
AcDbCircle
 10
118.399964
 20
210.899993
 30
0.0
 40
0.6
100
AcDbArc
 50
359.9999988761255
 51
0.0
  0
LINE
  5
179
330
1F
100
AcDbEntity
  8
LAY-1
  6
CONTINUOUS
 62
     3
100
AcDbLine
 10
118.99997
 20
199.125
 30
0.0
 11
118.99997
 21
199.5
 31
0.0
  0
ARC
  5
17A
330
1F
100
AcDbEntity
  8
LAY-1
  6
CONTINUOUS
 62
     3
100
AcDbCircle
 10
131.599976
 20
210.899993
 30
0.0
 40
0.6
100
AcDbArc
 50
180.0
 51
180.0000011238745
  0
LINE
  5
17B
330
1F
100
AcDbEntity
  8
LAY-1
  6
CONTINUOUS
 62
     3
100
AcDbLine
 10
130.99997
 20
199.125
 30
0.0
 11
130.99997
 21
199.5
 31
0.0
  0
LINE
  5
17C
330
1F
100
AcDbEntity
  8
LAY-1
  6
CONTINUOUS
 62
     3
100
AcDbLine
 10
118.99997
 20
199.125
 30
0.0
 11
118.99997
 21
195.5000000000003
 31
0.0
  0
LINE
  5
17D
330
1F
100
AcDbEntity
  8
LAY-1
  6
CONTINUOUS
 62
     1
100
AcDbLine
 10
119.946991
 20
196.5
 30
0.0
 11
119.946991
 21
195.5000000000003
 31
0.0
  0
LINE
  5
17E
330
1F
100
AcDbEntity
  8
LAY-1
  6
CONTINUOUS
 62
     1
100
AcDbLine
 10
130.052948
 20
196.5
 30
0.0
 11
130.052948
 21
195.5000000000003
 31
0.0
  0
LINE
  5
17F
330
1F
100
AcDbEntity
  8
LAY-1
  6
CONTINUOUS
 62
     3
100
AcDbLine
 10
130.99997
 20
199.125
 30
0.0
 11
130.99997
 21
195.5000000000003
 31
0.0
  0
LINE
  5
180
330
1F
100
AcDbEntity
  8
LAY-1
  6
CONTINUOUS
 62
     3
100
AcDbLine
 10
118.99997
 20
170.5
 30
0.0
 11
118.99997
 21
168.5
 31
0.0
  0
LINE
  5
181
330
1F
100
AcDbEntity
  8
LAY-1
  6
CONTINUOUS
 62
     1
100
AcDbLine
 10
119.946991
 20
170.5
 30
0.0
 11
119.946991
 21
167.552978
 31
0.0
  0
LINE
  5
182
330
1F
100
AcDbEntity
  8
LAY-1
  6
CONTINUOUS
 62
     1
100
AcDbLine
 10
130.052948
 20
170.5
 30
0.0
 11
130.052948
 21
167.552978
 31
0.0
  0
LINE
  5
183
330
1F
100
AcDbEntity
  8
LAY-1
  6
CONTINUOUS
 62
     3
100
AcDbLine
 10
130.99997
 20
170.5
 30
0.0
 11
130.99997
 21
168.5
 31
0.0
  0
LINE
  5
184
330
1F
100
AcDbEntity
  8
LAY-1
  6
EXLTYPE0
 62
     1
100
AcDbLine
 10
125.0000000000002
 20
224.7
 30
0.0
 11
125.0
 21
161.9
 31
0.0
  0
LINE
  5
185
330
1F
100
AcDbEntity
  8
LAY-1
  6
CONTINUOUS
 62
     3
100
AcDbLine
 10
232.4999999999999
 20
195.5000000000002
 30
0.0
 11
232.4999999999999
 21
183.5000000000002
 31
0.0
  0
LINE
  5
186
330
1F
100
AcDbEntity
  8
LAY-1
  6
CONTINUOUS
 62
     3
100
AcDbLine
 10
232.4999840000001
 20
199.5
 30
0.0
 11
232.4999840000001
 21
211.5000000000001
 31
0.0
  0
LINE
  5
187
330
1F
100
AcDbEntity
  8
LAY-1
  6
CONTINUOUS
 62
     3
100
AcDbLine
 10
209.25
 20
180.5000000000001
 30
0.0
 11
230.7500000000001
 21
180.5000000000001
 31
0.0
  0
LINE
  5
188
330
1F
100
AcDbEntity
  8
LAY-1
  6
CONTINUOUS
 62
     3
100
AcDbLine
 10
209.25
 20
180.5000000000001
 30
0.0
 11
209.2499999999999
 21
183.5000000000001
 31
0.0
  0
LINE
  5
189
330
1F
100
AcDbEntity
  8
LAY-1
  6
CONTINUOUS
 62
     3
100
AcDbLine
 10
230.75
 20
180.5000000000001
 30
0.0
 11
230.75
 21
183.5000000000002
 31
0.0
  0
LINE
  5
18A
330
1F
100
AcDbEntity
  8
LAY-1
  6
CONTINUOUS
 62
     3
100
AcDbLine
 10
209.0303040000001
 20
211.5
 30
0.0
 11
230.9696960000001
 21
211.5
 31
0.0
  0
LINE
  5
18B
330
1F
100
AcDbEntity
  8
LAY-1
  6
CONTINUOUS
 62
     3
100
AcDbLine
 10
229.00003
 20
219.5
 30
0.0
 11
211.00003
 21
219.5
 31
0.0
  0
LINE
  5
18C
330
1F
100
AcDbEntity
  8
LAY-1
  6
CONTINUOUS
 62
     3
100
AcDbLine
 10
211.00003
 20
219.5
 30
0.0
 11
209.030242
 21
218.362732
 31
0.0
  0
ARC
  5
18D
330
1F
100
AcDbEntity
  8
LAY-1
  6
CONTINUOUS
 62
     3
100
AcDbCircle
 10
220.00064
 20
205.70523
 30
0.0
 40
13.794775
100
AcDbArc
 50
66.57425692355623
 51
113.4304589304575
  0
ARC
  5
18E
330
1F
100
AcDbEntity
  8
LAY-1
  6
CONTINUOUS
 62
     3
100
AcDbCircle
 10
210.9141540000001
 20
213.230133
 30
0.0
 40
6.271714
100
AcDbArc
 50
54.94430230221155
 51
89.21531445172546
  0
LINE
  5
18F
330
1F
100
AcDbEntity
  8
LAY-1
  6
CONTINUOUS
 62
     3
100
AcDbLine
 10
229.00003
 20
219.5
 30
0.0
 11
230.969818
 21
218.362732
 31
0.0
  0
ARC
  5
190
330
1F
100
AcDbEntity
  8
LAY-1
  6
CONTINUOUS
 62
     3
100
AcDbCircle
 10
229.0859070000001
 20
213.230133
 30
0.0
 40
6.271714
100
AcDbArc
 50
90.7846855482746
 51
125.0556976977887
  0
LINE
  5
191
330
1F
100
AcDbEntity
  8
LAY-1
  6
CONTINUOUS
 62
     3
100
AcDbLine
 10
209.0303040000001
 20
211.5
 30
0.0
 11
209.030273
 21
218.362732
 31
0.0
  0
LINE
  5
192
330
1F
100
AcDbEntity
  8
LAY-1
  6
CONTINUOUS
 62
     3
100
AcDbLine
 10
214.5152890000001
 20
211.500061
 30
0.0
 11
214.515258
 21
218.362732
 31
0.0
  0
LINE
  5
193
330
1F
100
AcDbEntity
  8
LAY-1
  6
CONTINUOUS
 62
     3
100
AcDbLine
 10
225.4848020000001
 20
211.500061
 30
0.0
 11
225.484787
 21
218.362732
 31
0.0
  0
LINE
  5
194
330
1F
100
AcDbEntity
  8
LAY-1
  6
CONTINUOUS
 62
     3
100
AcDbLine
 10
230.9698020000001
 20
211.5
 30
0.0
 11
230.9697870000001
 21
218.362732
 31
0.0
  0
LINE
  5
195
330
1F
100
AcDbEntity
  8
LAY-1
  6
CONTINUOUS
 62
     3
100
AcDbLine
 10
226.00003
 20
196.5
 30
0.0
 11
214.00003
 21
196.5
 31
0.0
  0
LINE
  5
196
330
1F
100
AcDbEntity
  8
LAY-1
  6
CONTINUOUS
 62
     3
100
AcDbLine
 10
224.000045
 20
166.5
 30
0.0
 11
216.00003
 21
166.5
 31
0.0
  0
LINE
  5
197
330
1F
100
AcDbEntity
  8
LAY-1
  6
CONTINUOUS
 62
     3
100
AcDbLine
 10
214.00003
 20
168.5
 30
0.0
 11
216.00003
 21
166.5
 31
0.0
  0
LINE
  5
198
330
1F
100
AcDbEntity
  8
LAY-1
  6
CONTINUOUS
 62
     3
100
AcDbLine
 10
226.000045
 20
168.5
 30
0.0
 11
214.00003
 21
168.5
 31
0.0
  0
LINE
  5
199
330
1F
100
AcDbEntity
  8
LAY-1
  6
CONTINUOUS
 62
     1
100
AcDbLine
 10
214.00003
 20
199.125
 30
0.0
 11
214.947052
 21
196.5
 31
0.0
  0
LINE
  5
19A
330
1F
100
AcDbEntity
  8
LAY-1
  6
CONTINUOUS
 62
     3
100
AcDbLine
 10
226.00003
 20
168.5
 30
0.0
 11
224.00003
 21
166.5
 31
0.0
  0
LINE
  5
19B
330
1F
100
AcDbEntity
  8
LAY-1
  6
CONTINUOUS
 62
     1
100
AcDbLine
 10
226.00003
 20
199.125
 30
0.0
 11
225.053009
 21
196.5
 31
0.0
  0
INSERT
  5
19C
330
1F
100
AcDbEntity
  8
LAY-1
  6
CONTINUOUS
 62
     0
100
AcDbBlockReference
  2
HN12
 10
220.0000000000001
 20
180.5
 30
0.0
 41
-1.0
 50
270.0
  0
ARC
  5
19D
330
1F
100
AcDbEntity
  8
LAY-1
  6
CONTINUOUS
 62
     3
100
AcDbCircle
 10
226.600036
 20
210.899993
 30
0.0
 40
0.6
100
AcDbArc
 50
180.0
 51
180.0000011238733
  0
LINE
  5
19E
330
1F
100
AcDbEntity
  8
LAY-1
  6
CONTINUOUS
 62
     3
100
AcDbLine
 10
226.00003
 20
199.125
 30
0.0
 11
226.00003
 21
199.5
 31
0.0
  0
ARC
  5
19F
330
1F
100
AcDbEntity
  8
LAY-1
  6
CONTINUOUS
 62
     3
100
AcDbCircle
 10
213.400024
 20
210.899993
 30
0.0
 40
0.6
100
AcDbArc
 50
359.9999988761267
 51
0.0
  0
LINE
  5
1A0
330
1F
100
AcDbEntity
  8
LAY-1
  6
CONTINUOUS
 62
     3
100
AcDbLine
 10
214.00003
 20
199.125
 30
0.0
 11
214.00003
 21
199.5
 31
0.0
  0
LINE
  5
1A1
330
1F
100
AcDbEntity
  8
LAY-1
  6
CONTINUOUS
 62
     3
100
AcDbLine
 10
226.00003
 20
199.125
 30
0.0
 11
226.00003
 21
195.5000000000002
 31
0.0
  0
LINE
  5
1A2
330
1F
100
AcDbEntity
  8
LAY-1
  6
CONTINUOUS
 62
     1
100
AcDbLine
 10
225.053009
 20
196.5
 30
0.0
 11
225.053009
 21
195.5000000000002
 31
0.0
  0
LINE
  5
1A3
330
1F
100
AcDbEntity
  8
LAY-1
  6
CONTINUOUS
 62
     1
100
AcDbLine
 10
214.947052
 20
196.5
 30
0.0
 11
214.947052
 21
195.5000000000003
 31
0.0
  0
LINE
  5
1A4
330
1F
100
AcDbEntity
  8
LAY-1
  6
CONTINUOUS
 62
     3
100
AcDbLine
 10
214.00003
 20
199.125
 30
0.0
 11
214.00003
 21
195.5000000000003
 31
0.0
  0
LINE
  5
1A5
330
1F
100
AcDbEntity
  8
LAY-1
  6
CONTINUOUS
 62
     3
100
AcDbLine
 10
226.00003
 20
170.5
 30
0.0
 11
226.00003
 21
168.5
 31
0.0
  0
LINE
  5
1A6
330
1F
100
AcDbEntity
  8
LAY-1
  6
CONTINUOUS
 62
     1
100
AcDbLine
 10
225.053009
 20
170.5
 30
0.0
 11
225.053009
 21
167.552978
 31
0.0
  0
LINE
  5
1A7
330
1F
100
AcDbEntity
  8
LAY-1
  6
CONTINUOUS
 62
     1
100
AcDbLine
 10
214.947052
 20
170.5
 30
0.0
 11
214.947052
 21
167.552978
 31
0.0
  0
LINE
  5
1A8
330
1F
100
AcDbEntity
  8
LAY-1
  6
CONTINUOUS
 62
     3
100
AcDbLine
 10
214.00003
 20
170.5
 30
0.0
 11
214.00003
 21
168.5
 31
0.0
  0
LINE
  5
1A9
330
1F
100
AcDbEntity
  8
LAY-1
  6
EXLTYPE0
 62
     1
100
AcDbLine
 10
219.9999999999999
 20
224.7
 30
0.0
 11
220.0
 21
161.9
 31
0.0
  0
LINE
  5
1AA
330
1F
100
AcDbEntity
  8
LAY-1
  6
CONTINUOUS
 62
     3
100
AcDbLine
 10
148.1999999999999
 20
70.4999999999992
 30
0.0
 11
145.2000000000006
 21
67.49999999999987
 31
0.0
  0
LINE
  5
1AB
330
1F
100
AcDbEntity
  8
LAY-1
  6
CONTINUOUS
 62
     3
100
AcDbLine
 10
196.8000000000003
 20
70.49999999999923
 30
0.0
 11
199.7999999999996
 21
67.49999999999991
 31
0.0
  0
LINE
  5
1AC
330
1F
100
AcDbEntity
  8
LAY-1
  6
CONTINUOUS
 62
     3
100
AcDbLine
 10
112.5000000000002
 20
55.49999999999986
 30
0.0
 11
112.5000000000001
 21
67.49999999999986
 31
0.0
  0
LINE
  5
1AD
330
1F
100
AcDbEntity
  8
LAY-1
  6
CONTINUOUS
 62
     3
100
AcDbLine
 10
232.5
 20
55.49999999999984
 30
0.0
 11
112.5000000000002
 21
55.49999999999977
 31
0.0
  0
LINE
  5
1AE
330
1F
100
AcDbEntity
  8
LAY-1
  6
CONTINUOUS
 62
     3
100
AcDbLine
 10
232.5
 20
67.49999999999991
 30
0.0
 11
112.5000000000001
 21
67.49999999999986
 31
0.0
  0
LINE
  5
1AF
330
1F
100
AcDbEntity
  8
LAY-1
  6
CONTINUOUS
 62
     3
100
AcDbLine
 10
148.2
 20
70.50000000000006
 30
0.0
 11
196.8
 21
70.50000000000009
 31
0.0
  0
LINE
  5
1B0
330
1F
100
AcDbEntity
  8
LAY-1
  6
CONTINUOUS
 62
     3
100
AcDbLine
 10
172.5000000000001
 20
39.5
 30
0.0
 11
112.5000240000001
 21
39.49999999999997
 31
0.0
  0
LINE
  5
1B1
330
1F
100
AcDbEntity
  8
LAY-1
  6
CONTINUOUS
 62
     3
100
AcDbLine
 10
172.5000000000001
 20
39.5
 30
0.0
 11
232.4999550000001
 21
39.50000000000004
 31
0.0
  0
LINE
  5
1B2
330
1F
100
AcDbEntity
  8
LAY-1
  6
CONTINUOUS
 62
     3
100
AcDbLine
 10
172.5000000000001
 20
51.50000000000006
 30
0.0
 11
112.500016
 21
51.50000000000003
 31
0.0
  0
LINE
  5
1B3
330
1F
100
AcDbEntity
  8
LAY-1
  6
CONTINUOUS
 62
     3
100
AcDbLine
 10
172.5000000000001
 20
51.50000000000006
 30
0.0
 11
232.500016
 21
51.5000000000001
 31
0.0
  0
LINE
  5
1B4
330
1F
100
AcDbEntity
  8
LAY-1
  6
CONTINUOUS
 62
     3
100
AcDbLine
 10
214.0302890000001
 20
39.50000000000003
 30
0.0
 11
232.500016
 21
39.50000000000004
 31
0.0
  0
LINE
  5
1B5
330
1F
100
AcDbEntity
  8
LAY-1
  6
CONTINUOUS
 62
     3
100
AcDbLine
 10
112.500016
 20
51.50000000000003
 30
0.0
 11
112.500016
 21
39.49999999999997
 31
0.0
  0
LINE
  5
1B6
330
1F
100
AcDbEntity
  8
LAY-1
  6
CONTINUOUS
 62
     3
100
AcDbLine
 10
140.0000000000001
 20
55.49999999999979
 30
0.0
 11
140.0000000000001
 21
51.50000000000004
 31
0.0
  0
LINE
  5
1B7
330
1F
100
AcDbEntity
  8
LAY-1
  6
CONTINUOUS
 62
     3
100
AcDbLine
 10
205.0000000000001
 20
55.49999999999983
 30
0.0
 11
205.0000000000001
 21
51.50000000000009
 31
0.0
  0
LINE
  5
1B8
330
1F
100
AcDbEntity
  8
LAY-1
  6
CONTINUOUS
 62
     3
100
AcDbLine
 10
135.7500000000001
 20
70.4999999999999
 30
0.0
 11
114.25
 21
70.49999999999989
 31
0.0
  0
LINE
  5
1B9
330
1F
100
AcDbEntity
  8
LAY-1
  6
CONTINUOUS
 62
     3
100
AcDbLine
 10
135.7500000000001
 20
70.4999999999999
 30
0.0
 11
135.7500000000001
 21
67.4999999999999
 31
0.0
  0
LINE
  5
1BA
330
1F
100
AcDbEntity
  8
LAY-1
  6
CONTINUOUS
 62
     3
100
AcDbLine
 10
114.2500000000001
 20
70.49999999999989
 30
0.0
 11
114.2500000000001
 21
67.49999999999983
 31
0.0
  0
LINE
  5
1BB
330
1F
100
AcDbEntity
  8
LAY-1
  6
CONTINUOUS
 62
     3
100
AcDbLine
 10
135.9696960000001
 20
39.50000000000004
 30
0.0
 11
114.030304
 21
39.50000000000003
 31
0.0
  0
LINE
  5
1BC
330
1F
100
AcDbEntity
  8
LAY-1
  6
CONTINUOUS
 62
     3
100
AcDbLine
 10
115.99997
 20
31.50000000000003
 30
0.0
 11
133.9999700000001
 21
31.50000000000004
 31
0.0
  0
LINE
  5
1BD
330
1F
100
AcDbEntity
  8
LAY-1
  6
CONTINUOUS
 62
     3
100
AcDbLine
 10
133.9999700000001
 20
31.50000000000004
 30
0.0
 11
135.9697580000001
 21
32.63726800000005
 31
0.0
  0
ARC
  5
1BE
330
1F
100
AcDbEntity
  8
LAY-1
  6
CONTINUOUS
 62
     3
100
AcDbCircle
 10
124.9993600000001
 20
45.29477000000006
 30
0.0
 40
13.794775
100
AcDbArc
 50
246.5742569235564
 51
293.4304589304576
  0
ARC
  5
1BF
330
1F
100
AcDbEntity
  8
LAY-1
  6
CONTINUOUS
 62
     3
100
AcDbCircle
 10
134.0858460000001
 20
37.76986700000008
 30
0.0
 40
6.271714
100
AcDbArc
 50
234.9443023022116
 51
269.2153144517255
  0
LINE
  5
1C0
330
1F
100
AcDbEntity
  8
LAY-1
  6
CONTINUOUS
 62
     3
100
AcDbLine
 10
115.99997
 20
31.50000000000003
 30
0.0
 11
114.0301820000001
 21
32.63726800000003
 31
0.0
  0
ARC
  5
1C1
330
1F
100
AcDbEntity
  8
LAY-1
  6
CONTINUOUS
 62
     3
100
AcDbCircle
 10
115.914093
 20
37.76986700000006
 30
0.0
 40
6.271714
100
AcDbArc
 50
270.7846855482746
 51
305.0556976977887
  0
LINE
  5
1C2
330
1F
100
AcDbEntity
  8
LAY-1
  6
CONTINUOUS
 62
     3
100
AcDbLine
 10
135.9696960000001
 20
39.50000000000004
 30
0.0
 11
135.9697270000001
 21
32.63726800000005
 31
0.0
  0
LINE
  5
1C3
330
1F
100
AcDbEntity
  8
LAY-1
  6
CONTINUOUS
 62
     3
100
AcDbLine
 10
130.4847110000001
 20
39.49993900000008
 30
0.0
 11
130.4847420000001
 21
32.63726800000005
 31
0.0
  0
LINE
  5
1C4
330
1F
100
AcDbEntity
  8
LAY-1
  6
CONTINUOUS
 62
     3
100
AcDbLine
 10
119.5151980000001
 20
39.49993900000007
 30
0.0
 11
119.515213
 21
32.63726800000003
 31
0.0
  0
LINE
  5
1C5
330
1F
100
AcDbEntity
  8
LAY-1
  6
CONTINUOUS
 62
     3
100
AcDbLine
 10
114.030198
 20
39.50000000000003
 30
0.0
 11
114.030213
 21
32.63726800000003
 31
0.0
  0
LINE
  5
1C6
330
1F
100
AcDbEntity
  8
LAY-1
  6
CONTINUOUS
 62
     3
100
AcDbLine
 10
118.99997
 20
54.50000000000003
 30
0.0
 11
130.9999700000001
 21
54.50000000000004
 31
0.0
  0
LINE
  5
1C7
330
1F
100
AcDbEntity
  8
LAY-1
  6
CONTINUOUS
 62
     3
100
AcDbLine
 10
120.999955
 20
84.50000000000003
 30
0.0
 11
128.99997
 21
84.50000000000003
 31
0.0
  0
LINE
  5
1C8
330
1F
100
AcDbEntity
  8
LAY-1
  6
CONTINUOUS
 62
     3
100
AcDbLine
 10
130.99997
 20
82.50000000000003
 30
0.0
 11
128.99997
 21
84.50000000000003
 31
0.0
  0
LINE
  5
1C9
330
1F
100
AcDbEntity
  8
LAY-1
  6
CONTINUOUS
 62
     3
100
AcDbLine
 10
118.999955
 20
82.50000000000003
 30
0.0
 11
130.99997
 21
82.50000000000003
 31
0.0
  0
LINE
  5
1CA
330
1F
100
AcDbEntity
  8
LAY-1
  6
CONTINUOUS
 62
     1
100
AcDbLine
 10
130.9999700000001
 20
51.87500000000004
 30
0.0
 11
130.0529480000001
 21
54.50000000000004
 31
0.0
  0
LINE
  5
1CB
330
1F
100
AcDbEntity
  8
LAY-1
  6
CONTINUOUS
 62
     3
100
AcDbLine
 10
118.99997
 20
82.50000000000003
 30
0.0
 11
120.99997
 21
84.50000000000003
 31
0.0
  0
LINE
  5
1CC
330
1F
100
AcDbEntity
  8
LAY-1
  6
CONTINUOUS
 62
     1
100
AcDbLine
 10
118.99997
 20
51.87500000000003
 30
0.0
 11
119.9469910000001
 21
54.50000000000003
 31
0.0
  0
INSERT
  5
1CD
330
1F
100
AcDbEntity
  8
LAY-1
  6
CONTINUOUS
 62
     0
100
AcDbBlockReference
  2
HN12
 10
125.0
 20
70.50000000000003
 30
0.0
 41
-1.0
 50
90.0
  0
ARC
  5
1CE
330
1F
100
AcDbEntity
  8
LAY-1
  6
CONTINUOUS
 62
     3
100
AcDbCircle
 10
118.399964
 20
40.10000700000003
 30
0.0
 40
0.6
100
AcDbArc
 50
0.0
 51
0.0000011238733309
  0
LINE
  5
1CF
330
1F
100
AcDbEntity
  8
LAY-1
  6
CONTINUOUS
 62
     3
100
AcDbLine
 10
118.99997
 20
51.87500000000003
 30
0.0
 11
118.99997
 21
51.50000000000003
 31
0.0
  0
ARC
  5
1D0
330
1F
100
AcDbEntity
  8
LAY-1
  6
CONTINUOUS
 62
     3
100
AcDbCircle
 10
131.5999760000001
 20
40.10000700000005
 30
0.0
 40
0.6
100
AcDbArc
 50
179.9999988761267
 51
180.0
  0
LINE
  5
1D1
330
1F
100
AcDbEntity
  8
LAY-1
  6
CONTINUOUS
 62
     3
100
AcDbLine
 10
130.9999700000001
 20
51.87500000000004
 30
0.0
 11
130.9999700000001
 21
51.50000000000004
 31
0.0
  0
LINE
  5
1D2
330
1F
100
AcDbEntity
  8
LAY-1
  6
CONTINUOUS
 62
     3
100
AcDbLine
 10
118.99997
 20
51.87500000000003
 30
0.0
 11
118.99997
 21
55.49999999999977
 31
0.0
  0
LINE
  5
1D3
330
1F
100
AcDbEntity
  8
LAY-1
  6
CONTINUOUS
 62
     1
100
AcDbLine
 10
119.9469910000001
 20
54.50000000000003
 30
0.0
 11
119.9469910000001
 21
55.49999999999977
 31
0.0
  0
LINE
  5
1D4
330
1F
100
AcDbEntity
  8
LAY-1
  6
CONTINUOUS
 62
     1
100
AcDbLine
 10
130.0529480000001
 20
54.50000000000004
 30
0.0
 11
130.0529480000001
 21
55.49999999999979
 31
0.0
  0
LINE
  5
1D5
330
1F
100
AcDbEntity
  8
LAY-1
  6
CONTINUOUS
 62
     3
100
AcDbLine
 10
130.9999700000001
 20
51.87500000000004
 30
0.0
 11
130.9999700000001
 21
55.49999999999979
 31
0.0
  0
LINE
  5
1D6
330
1F
100
AcDbEntity
  8
LAY-1
  6
CONTINUOUS
 62
     3
100
AcDbLine
 10
118.99997
 20
80.50000000000003
 30
0.0
 11
118.99997
 21
82.50000000000003
 31
0.0
  0
LINE
  5
1D7
330
1F
100
AcDbEntity
  8
LAY-1
  6
CONTINUOUS
 62
     1
100
AcDbLine
 10
119.946991
 20
80.50000000000003
 30
0.0
 11
119.946991
 21
83.44702200000003
 31
0.0
  0
LINE
  5
1D8
330
1F
100
AcDbEntity
  8
LAY-1
  6
CONTINUOUS
 62
     1
100
AcDbLine
 10
130.052948
 20
80.50000000000003
 30
0.0
 11
130.052948
 21
83.44702200000003
 31
0.0
  0
LINE
  5
1D9
330
1F
100
AcDbEntity
  8
LAY-1
  6
CONTINUOUS
 62
     3
100
AcDbLine
 10
130.99997
 20
80.50000000000003
 30
0.0
 11
130.99997
 21
82.50000000000003
 31
0.0
  0
LINE
  5
1DA
330
1F
100
AcDbEntity
  8
LAY-1
  6
EXLTYPE0
 62
     1
100
AcDbLine
 10
125.0000000000002
 20
26.30000000000004
 30
0.0
 11
125.0
 21
89.10000000000002
 31
0.0
  0
LINE
  5
1DB
330
1F
100
AcDbEntity
  8
LAY-1
  6
CONTINUOUS
 62
     3
100
AcDbLine
 10
232.5
 20
55.49999999999993
 30
0.0
 11
232.5
 21
67.49999999999991
 31
0.0
  0
LINE
  5
1DC
330
1F
100
AcDbEntity
  8
LAY-1
  6
CONTINUOUS
 62
     3
100
AcDbLine
 10
232.4999840000002
 20
51.5000000000001
 30
0.0
 11
232.4999840000002
 21
39.50000000000004
 31
0.0
  0
LINE
  5
1DD
330
1F
100
AcDbEntity
  8
LAY-1
  6
CONTINUOUS
 62
     3
100
AcDbLine
 10
209.25
 20
70.49999999999994
 30
0.0
 11
230.7500000000001
 21
70.49999999999997
 31
0.0
  0
LINE
  5
1DE
330
1F
100
AcDbEntity
  8
LAY-1
  6
CONTINUOUS
 62
     3
100
AcDbLine
 10
209.25
 20
70.49999999999994
 30
0.0
 11
209.25
 21
67.49999999999994
 31
0.0
  0
LINE
  5
1DF
330
1F
100
AcDbEntity
  8
LAY-1
  6
CONTINUOUS
 62
     3
100
AcDbLine
 10
230.75
 20
70.49999999999997
 30
0.0
 11
230.75
 21
67.49999999999991
 31
0.0
  0
LINE
  5
1E0
330
1F
100
AcDbEntity
  8
LAY-1
  6
CONTINUOUS
 62
     3
100
AcDbLine
 10
209.0303040000001
 20
39.50000000000009
 30
0.0
 11
230.9696960000001
 21
39.5000000000001
 31
0.0
  0
LINE
  5
1E1
330
1F
100
AcDbEntity
  8
LAY-1
  6
CONTINUOUS
 62
     3
100
AcDbLine
 10
229.0000300000001
 20
31.5000000000001
 30
0.0
 11
211.0000300000001
 21
31.50000000000009
 31
0.0
  0
LINE
  5
1E2
330
1F
100
AcDbEntity
  8
LAY-1
  6
CONTINUOUS
 62
     3
100
AcDbLine
 10
211.0000300000001
 20
31.50000000000009
 30
0.0
 11
209.0302420000001
 21
32.63726800000009
 31
0.0
  0
ARC
  5
1E3
330
1F
100
AcDbEntity
  8
LAY-1
  6
CONTINUOUS
 62
     3
100
AcDbCircle
 10
220.0006400000001
 20
45.29477000000011
 30
0.0
 40
13.794775
100
AcDbArc
 50
246.5695410695425
 51
293.4257430764438
  0
ARC
  5
1E4
330
1F
100
AcDbEntity
  8
LAY-1
  6
CONTINUOUS
 62
     3
100
AcDbCircle
 10
210.9141540000001
 20
37.76986700000012
 30
0.0
 40
6.271714
100
AcDbArc
 50
270.7846855482746
 51
305.0556976977886
  0
LINE
  5
1E5
330
1F
100
AcDbEntity
  8
LAY-1
  6
CONTINUOUS
 62
     3
100
AcDbLine
 10
229.0000300000001
 20
31.5000000000001
 30
0.0
 11
230.9698180000001
 21
32.63726800000011
 31
0.0
  0
ARC
  5
1E6
330
1F
100
AcDbEntity
  8
LAY-1
  6
CONTINUOUS
 62
     3
100
AcDbCircle
 10
229.0859070000001
 20
37.76986700000013
 30
0.0
 40
6.271714
100
AcDbArc
 50
234.9443023022114
 51
269.2153144517255
  0
LINE
  5
1E7
330
1F
100
AcDbEntity
  8
LAY-1
  6
CONTINUOUS
 62
     3
100
AcDbLine
 10
209.0303040000001
 20
39.50000000000009
 30
0.0
 11
209.0302730000001
 21
32.63726800000009
 31
0.0
  0
LINE
  5
1E8
330
1F
100
AcDbEntity
  8
LAY-1
  6
CONTINUOUS
 62
     3
100
AcDbLine
 10
214.5152890000001
 20
39.49993900000013
 30
0.0
 11
214.5152580000001
 21
32.63726800000009
 31
0.0
  0
LINE
  5
1E9
330
1F
100
AcDbEntity
  8
LAY-1
  6
CONTINUOUS
 62
     3
100
AcDbLine
 10
225.4848020000001
 20
39.49993900000013
 30
0.0
 11
225.4847870000001
 21
32.63726800000009
 31
0.0
  0
LINE
  5
1EA
330
1F
100
AcDbEntity
  8
LAY-1
  6
CONTINUOUS
 62
     3
100
AcDbLine
 10
230.9698020000001
 20
39.5000000000001
 30
0.0
 11
230.9697870000001
 21
32.63726800000011
 31
0.0
  0
LINE
  5
1EB
330
1F
100
AcDbEntity
  8
LAY-1
  6
CONTINUOUS
 62
     3
100
AcDbLine
 10
226.0000300000001
 20
54.50000000000009
 30
0.0
 11
214.0000300000001
 21
54.50000000000009
 31
0.0
  0
LINE
  5
1EC
330
1F
100
AcDbEntity
  8
LAY-1
  6
CONTINUOUS
 62
     3
100
AcDbLine
 10
224.0000450000001
 20
84.50000000000009
 30
0.0
 11
216.0000300000001
 21
84.50000000000009
 31
0.0
  0
LINE
  5
1ED
330
1F
100
AcDbEntity
  8
LAY-1
  6
CONTINUOUS
 62
     3
100
AcDbLine
 10
214.0000300000001
 20
82.50000000000009
 30
0.0
 11
216.0000300000001
 21
84.50000000000009
 31
0.0
  0
LINE
  5
1EE
330
1F
100
AcDbEntity
  8
LAY-1
  6
CONTINUOUS
 62
     3
100
AcDbLine
 10
226.0000450000001
 20
82.50000000000009
 30
0.0
 11
214.0000300000001
 21
82.50000000000009
 31
0.0
  0
LINE
  5
1EF
330
1F
100
AcDbEntity
  8
LAY-1
  6
CONTINUOUS
 62
     1
100
AcDbLine
 10
214.0000300000001
 20
51.87500000000009
 30
0.0
 11
214.9470520000001
 21
54.50000000000009
 31
0.0
  0
LINE
  5
1F0
330
1F
100
AcDbEntity
  8
LAY-1
  6
CONTINUOUS
 62
     3
100
AcDbLine
 10
226.0000300000001
 20
82.50000000000009
 30
0.0
 11
224.0000300000001
 21
84.50000000000009
 31
0.0
  0
LINE
  5
1F1
330
1F
100
AcDbEntity
  8
LAY-1
  6
CONTINUOUS
 62
     1
100
AcDbLine
 10
226.0000300000001
 20
51.87500000000009
 30
0.0
 11
225.0530090000001
 21
54.50000000000009
 31
0.0
  0
INSERT
  5
1F2
330
1F
100
AcDbEntity
  8
LAY-1
  6
CONTINUOUS
 62
     0
100
AcDbBlockReference
  2
HN12
 10
220.0000000000001
 20
70.50000000000009
 30
0.0
 50
270.0
  0
ARC
  5
1F3
330
1F
100
AcDbEntity
  8
LAY-1
  6
CONTINUOUS
 62
     3
100
AcDbCircle
 10
226.6000360000001
 20
40.10000700000009
 30
0.0
 40
0.6
100
AcDbArc
 50
179.9999988761267
 51
180.0
  0
LINE
  5
1F4
330
1F
100
AcDbEntity
  8
LAY-1
  6
CONTINUOUS
 62
     3
100
AcDbLine
 10
226.0000300000001
 20
51.87500000000009
 30
0.0
 11
226.0000300000001
 21
51.50000000000009
 31
0.0
  0
ARC
  5
1F5
330
1F
100
AcDbEntity
  8
LAY-1
  6
CONTINUOUS
 62
     3
100
AcDbCircle
 10
213.4000240000001
 20
40.10000700000009
 30
0.0
 40
0.6
100
AcDbArc
 50
0.0
 51
0.0000011238733309
  0
LINE
  5
1F6
330
1F
100
AcDbEntity
  8
LAY-1
  6
CONTINUOUS
 62
     3
100
AcDbLine
 10
214.0000300000001
 20
51.87500000000009
 30
0.0
 11
214.0000300000001
 21
51.50000000000009
 31
0.0
  0
LINE
  5
1F7
330
1F
100
AcDbEntity
  8
LAY-1
  6
CONTINUOUS
 62
     3
100
AcDbLine
 10
226.0000300000001
 20
51.87500000000009
 30
0.0
 11
226.0000300000001
 21
55.49999999999986
 31
0.0
  0
LINE
  5
1F8
330
1F
100
AcDbEntity
  8
LAY-1
  6
CONTINUOUS
 62
     1
100
AcDbLine
 10
225.0530090000001
 20
54.50000000000009
 30
0.0
 11
225.0530090000001
 21
55.49999999999986
 31
0.0
  0
LINE
  5
1F9
330
1F
100
AcDbEntity
  8
LAY-1
  6
CONTINUOUS
 62
     1
100
AcDbLine
 10
214.9470520000001
 20
54.50000000000009
 30
0.0
 11
214.9470520000001
 21
55.49999999999983
 31
0.0
  0
LINE
  5
1FA
330
1F
100
AcDbEntity
  8
LAY-1
  6
CONTINUOUS
 62
     3
100
AcDbLine
 10
214.0000300000001
 20
51.87500000000009
 30
0.0
 11
214.0000300000001
 21
55.49999999999983
 31
0.0
  0
LINE
  5
1FB
330
1F
100
AcDbEntity
  8
LAY-1
  6
CONTINUOUS
 62
     3
100
AcDbLine
 10
226.0000300000001
 20
80.50000000000009
 30
0.0
 11
226.0000300000001
 21
82.50000000000009
 31
0.0
  0
LINE
  5
1FC
330
1F
100
AcDbEntity
  8
LAY-1
  6
CONTINUOUS
 62
     1
100
AcDbLine
 10
225.0530090000001
 20
80.50000000000009
 30
0.0
 11
225.0530090000001
 21
83.44702200000009
 31
0.0
  0
LINE
  5
1FD
330
1F
100
AcDbEntity
  8
LAY-1
  6
CONTINUOUS
 62
     1
100
AcDbLine
 10
214.9470520000001
 20
80.50000000000009
 30
0.0
 11
214.9470520000001
 21
83.44702200000009
 31
0.0
  0
LINE
  5
1FE
330
1F
100
AcDbEntity
  8
LAY-1
  6
CONTINUOUS
 62
     3
100
AcDbLine
 10
214.0000300000001
 20
80.50000000000009
 30
0.0
 11
214.0000300000001
 21
82.50000000000009
 31
0.0
  0
LINE
  5
1FF
330
1F
100
AcDbEntity
  8
LAY-1
  6
EXLTYPE0
 62
     1
100
AcDbLine
 10
219.9999999999999
 20
26.3000000000001
 30
0.0
 11
220.0000000000001
 21
89.10000000000011
 31
0.0
  0
CIRCLE
  5
200
330
1F
100
AcDbEntity
  8
LAY-1
  6
EXLTYPE2
 62
     1
100
AcDbCircle
 10
172.5
 20
319.0
 30
0.0
 40
47.50000000000001
  0
LINE
  5
201
330
1F
100
AcDbEntity
  8
LAY-1
  6
EXLTYPE2
 62
     1
100
AcDbLine
 10
214.9263941065854
 20
361.4264196357895
 30
0.0
 11
197.1256195643778
 21
343.6256562190872
 31
0.0
  0
CIRCLE
  5
202
330
1F
100
AcDbEntity
  8
LAY-1
  6
CONTINUOUS
 62
     3
100
AcDbCircle
 10
172.5
 20
319.0
 30
0.0
 40
24.54997
  0
LINE
  5
203
330
1F
100
AcDbEntity
  8
LAY-1
  6
EXLTYPE2
 62
     1
100
AcDbLine
 10
130.0736058934147
 20
361.4264196357895
 30
0.0
 11
147.8743804356224
 21
343.6256562190872
 31
0.0
  0
LINE
  5
204
330
1F
100
AcDbEntity
  8
LAY-1
  6
EXLTYPE2
 62
     1
100
AcDbLine
 10
214.9263941065854
 20
276.5735803642105
 30
0.0
 11
197.1256195643778
 21
294.3743437809128
 31
0.0
  0
LINE
  5
205
330
1F
100
AcDbEntity
  8
LAY-1
  6
EXLTYPE2
 62
     1
100
AcDbLine
 10
130.0736058934147
 20
276.5735803642105
 30
0.0
 11
147.8743804356224
 21
294.3743437809128
 31
0.0
  0
INSERT
  5
206
330
1F
100
AcDbEntity
  8
LAY-1
  6
CONTINUOUS
 62
     0
100
AcDbBlockReference
  2
HBH12
 10
138.91244342039
 20
352.5875876331
 30
0.0
 50
30.00000000000001
  0
INSERT
  5
207
330
1F
100
AcDbEntity
  8
LAY-1
  6
CONTINUOUS
 62
     0
100
AcDbBlockReference
  2
HBH12
 10
206.087556579613
 20
352.5875876331
 30
0.0
 50
30.00000000000001
  0
INSERT
  5
208
330
1F
100
AcDbEntity
  8
LAY-1
  6
CONTINUOUS
 62
     0
100
AcDbBlockReference
  2
HBH12
 10
138.91244342039
 20
285.4124123669
 30
0.0
 50
30.00000000000001
  0
INSERT
  5
209
330
1F
100
AcDbEntity
  8
LAY-1
  6
CONTINUOUS
 62
     0
100
AcDbBlockReference
  2
HBH12
 10
206.087556579613
 20
285.4124123669
 30
0.0
 50
30.00000000000001
  0
LINE
  5
20A
330
1F
100
AcDbEntity
  8
LAY-1
  6
CONTINUOUS
 62
     3
100
AcDbLine
 10
377.6000000000001
 20
195.5000000000002
 30
0.0
 11
377.6000000000001
 21
183.5000000000002
 31
0.0
  0
LINE
  5
20B
330
1F
100
AcDbEntity
  8
LAY-1
  6
CONTINUOUS
 62
     3
100
AcDbLine
 10
497.6
 20
195.5000000000003
 30
0.0
 11
377.6000000000001
 21
195.5000000000003
 31
0.0
  0
LINE
  5
20C
330
1F
100
AcDbEntity
  8
LAY-1
  6
CONTINUOUS
 62
     3
100
AcDbLine
 10
437.6
 20
211.5000000000001
 30
0.0
 11
377.6000240000001
 21
211.5000000000001
 31
0.0
  0
LINE
  5
20D
330
1F
100
AcDbEntity
  8
LAY-1
  6
CONTINUOUS
 62
     3
100
AcDbLine
 10
437.6
 20
211.5000000000001
 30
0.0
 11
497.599955
 21
211.5000000000001
 31
0.0
  0
LINE
  5
20E
330
1F
100
AcDbEntity
  8
LAY-1
  6
CONTINUOUS
 62
     3
100
AcDbLine
 10
437.6
 20
199.5
 30
0.0
 11
377.600016
 21
199.5
 31
0.0
  0
LINE
  5
20F
330
1F
100
AcDbEntity
  8
LAY-1
  6
CONTINUOUS
 62
     3
100
AcDbLine
 10
437.6
 20
199.5
 30
0.0
 11
497.600016
 21
199.5
 31
0.0
  0
LINE
  5
210
330
1F
100
AcDbEntity
  8
LAY-1
  6
CONTINUOUS
 62
     3
100
AcDbLine
 10
479.1302890000001
 20
211.5000000000001
 30
0.0
 11
497.600016
 21
211.5000000000001
 31
0.0
  0
LINE
  5
211
330
1F
100
AcDbEntity
  8
LAY-1
  6
CONTINUOUS
 62
     3
100
AcDbLine
 10
377.600016
 20
199.5
 30
0.0
 11
377.600016
 21
211.5000000000001
 31
0.0
  0
LINE
  5
212
330
1F
100
AcDbEntity
  8
LAY-1
  6
CONTINUOUS
 62
     3
100
AcDbLine
 10
405.1
 20
195.5000000000003
 30
0.0
 11
405.1
 21
199.5
 31
0.0
  0
LINE
  5
213
330
1F
100
AcDbEntity
  8
LAY-1
  6
CONTINUOUS
 62
     3
100
AcDbLine
 10
470.1000000000001
 20
195.5000000000003
 30
0.0
 11
470.1000000000001
 21
199.5
 31
0.0
  0
LINE
  5
214
330
1F
100
AcDbEntity
  8
LAY-1
  6
CONTINUOUS
 62
     3
100
AcDbLine
 10
379.3500000000001
 20
180.5000000000001
 30
0.0
 11
379.3500000000001
 21
183.5000000000002
 31
0.0
  0
LINE
  5
215
330
1F
100
AcDbEntity
  8
LAY-1
  6
CONTINUOUS
 62
     3
100
AcDbLine
 10
401.069696
 20
211.5
 30
0.0
 11
379.130304
 21
211.5
 31
0.0
  0
LINE
  5
216
330
1F
100
AcDbEntity
  8
LAY-1
  6
CONTINUOUS
 62
     3
100
AcDbLine
 10
381.09997
 20
219.5
 30
0.0
 11
399.09997
 21
219.5
 31
0.0
  0
LINE
  5
217
330
1F
100
AcDbEntity
  8
LAY-1
  6
CONTINUOUS
 62
     3
100
AcDbLine
 10
399.09997
 20
219.5
 30
0.0
 11
401.069758
 21
218.362732
 31
0.0
  0
ARC
  5
218
330
1F
100
AcDbEntity
  8
LAY-1
  6
CONTINUOUS
 62
     3
100
AcDbCircle
 10
390.09936
 20
205.70523
 30
0.0
 40
13.794775
100
AcDbArc
 50
66.5695410695425
 51
113.4257430764437
  0
ARC
  5
219
330
1F
100
AcDbEntity
  8
LAY-1
  6
CONTINUOUS
 62
     3
100
AcDbCircle
 10
399.185846
 20
213.230133
 30
0.0
 40
6.271714
100
AcDbArc
 50
90.78468554827452
 51
125.0556976977885
  0
LINE
  5
21A
330
1F
100
AcDbEntity
  8
LAY-1
  6
CONTINUOUS
 62
     3
100
AcDbLine
 10
381.09997
 20
219.5
 30
0.0
 11
379.130182
 21
218.362732
 31
0.0
  0
ARC
  5
21B
330
1F
100
AcDbEntity
  8
LAY-1
  6
CONTINUOUS
 62
     3
100
AcDbCircle
 10
381.014093
 20
213.230133
 30
0.0
 40
6.271714
100
AcDbArc
 50
54.94430230221137
 51
89.21531445172552
  0
LINE
  5
21C
330
1F
100
AcDbEntity
  8
LAY-1
  6
CONTINUOUS
 62
     3
100
AcDbLine
 10
401.069696
 20
211.5
 30
0.0
 11
401.0697270000001
 21
218.362732
 31
0.0
  0
LINE
  5
21D
330
1F
100
AcDbEntity
  8
LAY-1
  6
CONTINUOUS
 62
     3
100
AcDbLine
 10
395.584711
 20
211.500061
 30
0.0
 11
395.5847420000001
 21
218.362732
 31
0.0
  0
LINE
  5
21E
330
1F
100
AcDbEntity
  8
LAY-1
  6
CONTINUOUS
 62
     3
100
AcDbLine
 10
384.615198
 20
211.500061
 30
0.0
 11
384.615213
 21
218.362732
 31
0.0
  0
LINE
  5
21F
330
1F
100
AcDbEntity
  8
LAY-1
  6
CONTINUOUS
 62
     3
100
AcDbLine
 10
379.130198
 20
211.5
 30
0.0
 11
379.130213
 21
218.362732
 31
0.0
  0
LINE
  5
220
330
1F
100
AcDbEntity
  8
LAY-1
  6
CONTINUOUS
 62
     3
100
AcDbLine
 10
384.09997
 20
196.5
 30
0.0
 11
396.09997
 21
196.5
 31
0.0
  0
LINE
  5
221
330
1F
100
AcDbEntity
  8
LAY-1
  6
CONTINUOUS
 62
     1
100
AcDbLine
 10
396.09997
 20
199.125
 30
0.0
 11
395.152948
 21
196.5
 31
0.0
  0
LINE
  5
222
330
1F
100
AcDbEntity
  8
LAY-1
  6
CONTINUOUS
 62
     1
100
AcDbLine
 10
384.09997
 20
199.125
 30
0.0
 11
385.046991
 21
196.5
 31
0.0
  0
ARC
  5
223
330
1F
100
AcDbEntity
  8
LAY-1
  6
CONTINUOUS
 62
     3
100
AcDbCircle
 10
383.499964
 20
210.899993
 30
0.0
 40
0.6
100
AcDbArc
 50
359.9999988761255
 51
0.0
  0
LINE
  5
224
330
1F
100
AcDbEntity
  8
LAY-1
  6
CONTINUOUS
 62
     3
100
AcDbLine
 10
384.09997
 20
199.125
 30
0.0
 11
384.09997
 21
199.5
 31
0.0
  0
ARC
  5
225
330
1F
100
AcDbEntity
  8
LAY-1
  6
CONTINUOUS
 62
     3
100
AcDbCircle
 10
396.699976
 20
210.899993
 30
0.0
 40
0.6
100
AcDbArc
 50
180.0
 51
180.0000011238745
  0
LINE
  5
226
330
1F
100
AcDbEntity
  8
LAY-1
  6
CONTINUOUS
 62
     3
100
AcDbLine
 10
396.09997
 20
199.125
 30
0.0
 11
396.09997
 21
199.5
 31
0.0
  0
LINE
  5
227
330
1F
100
AcDbEntity
  8
LAY-1
  6
CONTINUOUS
 62
     3
100
AcDbLine
 10
384.09997
 20
199.125
 30
0.0
 11
384.09997
 21
195.5000000000003
 31
0.0
  0
LINE
  5
228
330
1F
100
AcDbEntity
  8
LAY-1
  6
CONTINUOUS
 62
     1
100
AcDbLine
 10
385.046991
 20
196.5
 30
0.0
 11
385.046991
 21
195.5000000000003
 31
0.0
  0
LINE
  5
229
330
1F
100
AcDbEntity
  8
LAY-1
  6
CONTINUOUS
 62
     1
100
AcDbLine
 10
395.152948
 20
196.5
 30
0.0
 11
395.152948
 21
195.5000000000003
 31
0.0
  0
LINE
  5
22A
330
1F
100
AcDbEntity
  8
LAY-1
  6
CONTINUOUS
 62
     3
100
AcDbLine
 10
396.09997
 20
199.125
 30
0.0
 11
396.09997
 21
195.5000000000003
 31
0.0
  0
LINE
  5
22B
330
1F
100
AcDbEntity
  8
LAY-1
  6
CONTINUOUS
 62
     3
100
AcDbLine
 10
497.6
 20
195.5000000000002
 30
0.0
 11
497.6
 21
183.5000000000002
 31
0.0
  0
LINE
  5
22C
330
1F
100
AcDbEntity
  8
LAY-1
  6
CONTINUOUS
 62
     3
100
AcDbLine
 10
497.5999840000002
 20
199.5
 30
0.0
 11
497.5999840000002
 21
211.5000000000001
 31
0.0
  0
LINE
  5
22D
330
1F
100
AcDbEntity
  8
LAY-1
  6
CONTINUOUS
 62
     3
100
AcDbLine
 10
495.85
 20
180.5000000000001
 30
0.0
 11
495.85
 21
183.5000000000002
 31
0.0
  0
LINE
  5
22E
330
1F
100
AcDbEntity
  8
LAY-1
  6
CONTINUOUS
 62
     3
100
AcDbLine
 10
474.1303040000001
 20
211.5
 30
0.0
 11
496.0696960000001
 21
211.5
 31
0.0
  0
LINE
  5
22F
330
1F
100
AcDbEntity
  8
LAY-1
  6
CONTINUOUS
 62
     3
100
AcDbLine
 10
494.1000300000001
 20
219.5
 30
0.0
 11
476.1000300000001
 21
219.5
 31
0.0
  0
LINE
  5
230
330
1F
100
AcDbEntity
  8
LAY-1
  6
CONTINUOUS
 62
     3
100
AcDbLine
 10
476.1000300000001
 20
219.5
 30
0.0
 11
474.1302420000001
 21
218.362732
 31
0.0
  0
ARC
  5
231
330
1F
100
AcDbEntity
  8
LAY-1
  6
CONTINUOUS
 62
     3
100
AcDbCircle
 10
485.1006400000001
 20
205.70523
 30
0.0
 40
13.794775
100
AcDbArc
 50
66.57425692355623
 51
113.4304589304575
  0
ARC
  5
232
330
1F
100
AcDbEntity
  8
LAY-1
  6
CONTINUOUS
 62
     3
100
AcDbCircle
 10
476.0141540000001
 20
213.230133
 30
0.0
 40
6.271714
100
AcDbArc
 50
54.94430230221155
 51
89.21531445172546
  0
LINE
  5
233
330
1F
100
AcDbEntity
  8
LAY-1
  6
CONTINUOUS
 62
     3
100
AcDbLine
 10
494.1000300000001
 20
219.5
 30
0.0
 11
496.0698180000001
 21
218.362732
 31
0.0
  0
ARC
  5
234
330
1F
100
AcDbEntity
  8
LAY-1
  6
CONTINUOUS
 62
     3
100
AcDbCircle
 10
494.1859070000001
 20
213.230133
 30
0.0
 40
6.271714
100
AcDbArc
 50
90.7846855482746
 51
125.0556976977887
  0
LINE
  5
235
330
1F
100
AcDbEntity
  8
LAY-1
  6
CONTINUOUS
 62
     3
100
AcDbLine
 10
474.1303040000001
 20
211.5
 30
0.0
 11
474.130273
 21
218.362732
 31
0.0
  0
LINE
  5
236
330
1F
100
AcDbEntity
  8
LAY-1
  6
CONTINUOUS
 62
     3
100
AcDbLine
 10
479.6152890000001
 20
211.500061
 30
0.0
 11
479.615258
 21
218.362732
 31
0.0
  0
LINE
  5
237
330
1F
100
AcDbEntity
  8
LAY-1
  6
CONTINUOUS
 62
     3
100
AcDbLine
 10
490.5848020000001
 20
211.500061
 30
0.0
 11
490.5847870000001
 21
218.362732
 31
0.0
  0
LINE
  5
238
330
1F
100
AcDbEntity
  8
LAY-1
  6
CONTINUOUS
 62
     3
100
AcDbLine
 10
496.0698020000001
 20
211.5
 30
0.0
 11
496.0697870000001
 21
218.362732
 31
0.0
  0
LINE
  5
239
330
1F
100
AcDbEntity
  8
LAY-1
  6
CONTINUOUS
 62
     3
100
AcDbLine
 10
491.1000300000001
 20
196.5
 30
0.0
 11
479.1000300000001
 21
196.5
 31
0.0
  0
LINE
  5
23A
330
1F
100
AcDbEntity
  8
LAY-1
  6
CONTINUOUS
 62
     1
100
AcDbLine
 10
479.1000300000001
 20
199.125
 30
0.0
 11
480.0470520000001
 21
196.5
 31
0.0
  0
LINE
  5
23B
330
1F
100
AcDbEntity
  8
LAY-1
  6
CONTINUOUS
 62
     1
100
AcDbLine
 10
491.1000300000001
 20
199.125
 30
0.0
 11
490.1530090000001
 21
196.5
 31
0.0
  0
ARC
  5
23C
330
1F
100
AcDbEntity
  8
LAY-1
  6
CONTINUOUS
 62
     3
100
AcDbCircle
 10
491.7000360000001
 20
210.899993
 30
0.0
 40
0.6
100
AcDbArc
 50
180.0
 51
180.0000011238733
  0
LINE
  5
23D
330
1F
100
AcDbEntity
  8
LAY-1
  6
CONTINUOUS
 62
     3
100
AcDbLine
 10
491.1000300000001
 20
199.125
 30
0.0
 11
491.1000300000001
 21
199.5
 31
0.0
  0
ARC
  5
23E
330
1F
100
AcDbEntity
  8
LAY-1
  6
CONTINUOUS
 62
     3
100
AcDbCircle
 10
478.5000240000001
 20
210.899993
 30
0.0
 40
0.6
100
AcDbArc
 50
359.9999988761267
 51
0.0
  0
LINE
  5
23F
330
1F
100
AcDbEntity
  8
LAY-1
  6
CONTINUOUS
 62
     3
100
AcDbLine
 10
479.1000300000001
 20
199.125
 30
0.0
 11
479.1000300000001
 21
199.5
 31
0.0
  0
LINE
  5
240
330
1F
100
AcDbEntity
  8
LAY-1
  6
CONTINUOUS
 62
     3
100
AcDbLine
 10
491.1000300000001
 20
199.125
 30
0.0
 11
491.1000300000001
 21
195.5000000000002
 31
0.0
  0
LINE
  5
241
330
1F
100
AcDbEntity
  8
LAY-1
  6
CONTINUOUS
 62
     1
100
AcDbLine
 10
490.1530090000001
 20
196.5
 30
0.0
 11
490.1530090000001
 21
195.5000000000002
 31
0.0
  0
LINE
  5
242
330
1F
100
AcDbEntity
  8
LAY-1
  6
CONTINUOUS
 62
     1
100
AcDbLine
 10
480.0470520000001
 20
196.5
 30
0.0
 11
480.0470520000001
 21
195.5000000000003
 31
0.0
  0
LINE
  5
243
330
1F
100
AcDbEntity
  8
LAY-1
  6
CONTINUOUS
 62
     3
100
AcDbLine
 10
479.1000300000001
 20
199.125
 30
0.0
 11
479.1000300000001
 21
195.5000000000003
 31
0.0
  0
LINE
  5
244
330
1F
100
AcDbEntity
  8
LAY-1
  6
EXLTYPE2
 62
     1
100
AcDbLine
 10
437.6
 20
223.3
 30
0.0
 11
437.6
 21
29.8
 31
0.0
  0
LINE
  5
245
330
1F
100
AcDbEntity
  8
LAY-1
  6
CONTINUOUS
 62
     3
100
AcDbLine
 10
381.1000310000001
 20
170.5
 30
0.0
 11
379.1302430000001
 21
171.6372679999999
 31
0.0
  0
ARC
  5
246
330
1F
100
AcDbEntity
  8
LAY-1
  6
CONTINUOUS
 62
     3
100
AcDbCircle
 10
381.014154
 20
176.769867
 30
0.0
 40
6.271714
100
AcDbArc
 50
270.7846855482746
 51
305.0556976977886
  0
LINE
  5
247
330
1F
100
AcDbEntity
  8
LAY-1
  6
CONTINUOUS
 62
     3
100
AcDbLine
 10
379.130273
 20
171.6372679999999
 30
0.0
 11
379.130304
 21
180.5
 31
0.0
  0
LINE
  5
248
330
1F
100
AcDbEntity
  8
LAY-1
  6
CONTINUOUS
 62
     3
100
AcDbLine
 10
384.615259
 20
171.6372679999999
 30
0.0
 11
384.615274
 21
180.499939
 31
0.0
  0
LINE
  5
249
330
1F
100
AcDbEntity
  8
LAY-1
  6
CONTINUOUS
 62
     3
100
AcDbLine
 10
494.099969
 20
170.5
 30
0.0
 11
496.069757
 21
171.6372679999999
 31
0.0
  0
ARC
  5
24A
330
1F
100
AcDbEntity
  8
LAY-1
  6
CONTINUOUS
 62
     3
100
AcDbCircle
 10
494.1858460000001
 20
176.769867
 30
0.0
 40
6.271714
100
AcDbArc
 50
234.9443023022116
 51
269.2153144517258
  0
LINE
  5
24B
330
1F
100
AcDbEntity
  8
LAY-1
  6
CONTINUOUS
 62
     3
100
AcDbLine
 10
496.0697270000001
 20
171.6372679999999
 30
0.0
 11
496.069696
 21
180.5
 31
0.0
  0
LINE
  5
24C
330
1F
100
AcDbEntity
  8
LAY-1
  6
CONTINUOUS
 62
     3
100
AcDbLine
 10
490.5847410000001
 20
171.6372679999999
 30
0.0
 11
490.584726
 21
180.499939
 31
0.0
  0
LINE
  5
24D
330
1F
100
AcDbEntity
  8
LAY-1
  6
CONTINUOUS
 62
     3
100
AcDbLine
 10
497.6
 20
183.5000000000002
 30
0.0
 11
476.7918358845307
 21
183.5000000000002
 31
0.0
  0
LINE
  5
24E
330
1F
100
AcDbEntity
  8
LAY-1
  6
CONTINUOUS
 62
     3
100
AcDbLine
 10
398.4081641154694
 20
183.5000000000002
 30
0.0
 11
377.6000000000001
 21
183.5000000000002
 31
0.0
  0
LINE
  5
24F
330
1F
100
AcDbEntity
  8
LAY-1
  6
CONTINUOUS
 62
     3
100
AcDbLine
 10
394.2987298107783
 20
180.5000000000002
 30
0.0
 11
379.35
 21
180.5000000000001
 31
0.0
  0
LINE
  5
250
330
1F
100
AcDbEntity
  8
LAY-1
  6
CONTINUOUS
 62
     3
100
AcDbLine
 10
379.130304
 20
180.5
 30
0.0
 11
394.2987298107781
 21
180.5
 31
0.0
  0
LINE
  5
251
330
1F
100
AcDbEntity
  8
LAY-1
  6
CONTINUOUS
 62
     3
100
AcDbLine
 10
496.069696
 20
180.5
 30
0.0
 11
480.901270189222
 21
180.5
 31
0.0
  0
LINE
  5
252
330
1F
100
AcDbEntity
  8
LAY-1
  6
CONTINUOUS
 62
     3
100
AcDbLine
 10
480.9012701892217
 20
180.5000000000002
 30
0.0
 11
495.8500000000001
 21
180.5000000000001
 31
0.0
  0
ARC
  5
253
330
1F
100
AcDbEntity
  8
LAY-1
  6
CONTINUOUS
 62
     3
100
AcDbCircle
 10
485.0993590000001
 20
184.294769
 30
0.0
 40
13.794775
100
AcDbArc
 50
292.3069131924139
 51
293.4304589304575
  0
LINE
  5
254
330
1F
100
AcDbEntity
  8
LAY-1
  6
CONTINUOUS
 62
     3
100
AcDbLine
 10
491.2190264738181
 20
170.5
 30
0.0
 11
494.099969
 21
170.5
 31
0.0
  0
ARC
  5
255
330
1F
100
AcDbEntity
  8
LAY-1
  6
CONTINUOUS
 62
     3
100
AcDbCircle
 10
390.1006410000001
 20
184.294769
 30
0.0
 40
13.794775
100
AcDbArc
 50
246.5695410695425
 51
247.6930868075854
  0
LINE
  5
256
330
1F
100
AcDbEntity
  8
LAY-1
  6
CONTINUOUS
 62
     3
100
AcDbLine
 10
383.980973526182
 20
170.5
 30
0.0
 11
381.1000310000001
 21
170.5
 31
0.0
  0
LINE
  5
257
330
1F
100
AcDbEntity
  8
LAY-1
  6
EXLTYPE0
 62
     1
100
AcDbLine
 10
390.1000000000002
 20
224.7
 30
0.0
 11
390.1
 21
167.1
 31
0.0
  0
LINE
  5
258
330
1F
100
AcDbEntity
  8
LAY-1
  6
EXLTYPE0
 62
     1
100
AcDbLine
 10
485.0999999999999
 20
224.7
 30
0.0
 11
485.0999999999999
 21
167.1000000000002
 31
0.0
  0
LINE
  5
259
330
1F
100
AcDbEntity
  8
LAY-1
  6
CONTINUOUS
 62
     3
100
AcDbLine
 10
377.6000000000002
 20
55.49999999999982
 30
0.0
 11
377.6000000000002
 21
67.49999999999982
 31
0.0
  0
LINE
  5
25A
330
1F
100
AcDbEntity
  8
LAY-1
  6
CONTINUOUS
 62
     3
100
AcDbLine
 10
497.6
 20
55.4999999999998
 30
0.0
 11
377.6000000000002
 21
55.49999999999973
 31
0.0
  0
LINE
  5
25B
330
1F
100
AcDbEntity
  8
LAY-1
  6
CONTINUOUS
 62
     3
100
AcDbLine
 10
437.6000000000001
 20
39.49999999999996
 30
0.0
 11
377.6000240000001
 21
39.49999999999993
 31
0.0
  0
LINE
  5
25C
330
1F
100
AcDbEntity
  8
LAY-1
  6
CONTINUOUS
 62
     3
100
AcDbLine
 10
437.6000000000001
 20
39.49999999999996
 30
0.0
 11
497.5999550000001
 21
39.5
 31
0.0
  0
LINE
  5
25D
330
1F
100
AcDbEntity
  8
LAY-1
  6
CONTINUOUS
 62
     3
100
AcDbLine
 10
437.6000000000001
 20
51.50000000000001
 30
0.0
 11
377.600016
 21
51.49999999999999
 31
0.0
  0
LINE
  5
25E
330
1F
100
AcDbEntity
  8
LAY-1
  6
CONTINUOUS
 62
     3
100
AcDbLine
 10
437.6000000000001
 20
51.50000000000001
 30
0.0
 11
497.600016
 21
51.50000000000006
 31
0.0
  0
LINE
  5
25F
330
1F
100
AcDbEntity
  8
LAY-1
  6
CONTINUOUS
 62
     3
100
AcDbLine
 10
479.1302890000001
 20
39.49999999999999
 30
0.0
 11
497.600016
 21
39.5
 31
0.0
  0
LINE
  5
260
330
1F
100
AcDbEntity
  8
LAY-1
  6
CONTINUOUS
 62
     3
100
AcDbLine
 10
377.600016
 20
51.49999999999999
 30
0.0
 11
377.600016
 21
39.49999999999993
 31
0.0
  0
LINE
  5
261
330
1F
100
AcDbEntity
  8
LAY-1
  6
CONTINUOUS
 62
     3
100
AcDbLine
 10
405.1000000000001
 20
55.49999999999974
 30
0.0
 11
405.1000000000001
 21
51.5
 31
0.0
  0
LINE
  5
262
330
1F
100
AcDbEntity
  8
LAY-1
  6
CONTINUOUS
 62
     3
100
AcDbLine
 10
470.1000000000001
 20
55.49999999999979
 30
0.0
 11
470.1000000000001
 21
51.50000000000004
 31
0.0
  0
LINE
  5
263
330
1F
100
AcDbEntity
  8
LAY-1
  6
CONTINUOUS
 62
     3
100
AcDbLine
 10
379.3500000000002
 20
70.49999999999984
 30
0.0
 11
379.3500000000002
 21
67.49999999999979
 31
0.0
  0
LINE
  5
264
330
1F
100
AcDbEntity
  8
LAY-1
  6
CONTINUOUS
 62
     3
100
AcDbLine
 10
401.0696960000001
 20
39.5
 30
0.0
 11
379.1303040000001
 21
39.49999999999999
 31
0.0
  0
LINE
  5
265
330
1F
100
AcDbEntity
  8
LAY-1
  6
CONTINUOUS
 62
     3
100
AcDbLine
 10
381.0999700000001
 20
31.49999999999999
 30
0.0
 11
399.0999700000001
 21
31.5
 31
0.0
  0
LINE
  5
266
330
1F
100
AcDbEntity
  8
LAY-1
  6
CONTINUOUS
 62
     3
100
AcDbLine
 10
399.0999700000001
 20
31.5
 30
0.0
 11
401.0697580000001
 21
32.63726800000001
 31
0.0
  0
ARC
  5
267
330
1F
100
AcDbEntity
  8
LAY-1
  6
CONTINUOUS
 62
     3
100
AcDbCircle
 10
390.0993600000001
 20
45.29477000000001
 30
0.0
 40
13.794775
100
AcDbArc
 50
246.5742569235564
 51
293.4304589304576
  0
ARC
  5
268
330
1F
100
AcDbEntity
  8
LAY-1
  6
CONTINUOUS
 62
     3
100
AcDbCircle
 10
399.1858460000001
 20
37.76986700000003
 30
0.0
 40
6.271714
100
AcDbArc
 50
234.9443023022116
 51
269.2153144517258
  0
LINE
  5
269
330
1F
100
AcDbEntity
  8
LAY-1
  6
CONTINUOUS
 62
     3
100
AcDbLine
 10
381.0999700000001
 20
31.49999999999999
 30
0.0
 11
379.1301820000001
 21
32.63726799999999
 31
0.0
  0
ARC
  5
26A
330
1F
100
AcDbEntity
  8
LAY-1
  6
CONTINUOUS
 62
     3
100
AcDbCircle
 10
381.0140930000001
 20
37.76986700000002
 30
0.0
 40
6.271714
100
AcDbArc
 50
270.7846855482744
 51
305.0556976977886
  0
LINE
  5
26B
330
1F
100
AcDbEntity
  8
LAY-1
  6
CONTINUOUS
 62
     3
100
AcDbLine
 10
401.0696960000001
 20
39.5
 30
0.0
 11
401.0697270000001
 21
32.63726800000001
 31
0.0
  0
LINE
  5
26C
330
1F
100
AcDbEntity
  8
LAY-1
  6
CONTINUOUS
 62
     3
100
AcDbLine
 10
395.5847110000001
 20
39.49993900000004
 30
0.0
 11
395.5847420000001
 21
32.63726800000001
 31
0.0
  0
LINE
  5
26D
330
1F
100
AcDbEntity
  8
LAY-1
  6
CONTINUOUS
 62
     3
100
AcDbLine
 10
384.6151980000001
 20
39.49993900000003
 30
0.0
 11
384.6152130000001
 21
32.63726799999999
 31
0.0
  0
LINE
  5
26E
330
1F
100
AcDbEntity
  8
LAY-1
  6
CONTINUOUS
 62
     3
100
AcDbLine
 10
379.1301980000001
 20
39.49999999999999
 30
0.0
 11
379.1302130000001
 21
32.63726799999999
 31
0.0
  0
LINE
  5
26F
330
1F
100
AcDbEntity
  8
LAY-1
  6
CONTINUOUS
 62
     3
100
AcDbLine
 10
384.0999700000001
 20
54.49999999999999
 30
0.0
 11
396.0999700000001
 21
54.5
 31
0.0
  0
LINE
  5
270
330
1F
100
AcDbEntity
  8
LAY-1
  6
CONTINUOUS
 62
     1
100
AcDbLine
 10
396.0999700000001
 20
51.875
 30
0.0
 11
395.1529480000001
 21
54.5
 31
0.0
  0
LINE
  5
271
330
1F
100
AcDbEntity
  8
LAY-1
  6
CONTINUOUS
 62
     1
100
AcDbLine
 10
384.0999700000001
 20
51.87499999999999
 30
0.0
 11
385.0469910000001
 21
54.49999999999999
 31
0.0
  0
ARC
  5
272
330
1F
100
AcDbEntity
  8
LAY-1
  6
CONTINUOUS
 62
     3
100
AcDbCircle
 10
383.4999640000001
 20
40.10000699999999
 30
0.0
 40
0.6
100
AcDbArc
 50
0.0
 51
0.0000011238733309
  0
LINE
  5
273
330
1F
100
AcDbEntity
  8
LAY-1
  6
CONTINUOUS
 62
     3
100
AcDbLine
 10
384.0999700000001
 20
51.87499999999999
 30
0.0
 11
384.0999700000001
 21
51.49999999999999
 31
0.0
  0
ARC
  5
274
330
1F
100
AcDbEntity
  8
LAY-1
  6
CONTINUOUS
 62
     3
100
AcDbCircle
 10
396.6999760000001
 20
40.10000700000001
 30
0.0
 40
0.6
100
AcDbArc
 50
179.9999988761267
 51
180.0
  0
LINE
  5
275
330
1F
100
AcDbEntity
  8
LAY-1
  6
CONTINUOUS
 62
     3
100
AcDbLine
 10
396.0999700000001
 20
51.875
 30
0.0
 11
396.0999700000001
 21
51.5
 31
0.0
  0
LINE
  5
276
330
1F
100
AcDbEntity
  8
LAY-1
  6
CONTINUOUS
 62
     3
100
AcDbLine
 10
384.0999700000001
 20
51.87499999999999
 30
0.0
 11
384.0999700000001
 21
55.49999999999973
 31
0.0
  0
LINE
  5
277
330
1F
100
AcDbEntity
  8
LAY-1
  6
CONTINUOUS
 62
     1
100
AcDbLine
 10
385.0469910000001
 20
54.49999999999999
 30
0.0
 11
385.0469910000001
 21
55.49999999999973
 31
0.0
  0
LINE
  5
278
330
1F
100
AcDbEntity
  8
LAY-1
  6
CONTINUOUS
 62
     1
100
AcDbLine
 10
395.1529480000001
 20
54.5
 30
0.0
 11
395.1529480000001
 21
55.49999999999974
 31
0.0
  0
LINE
  5
279
330
1F
100
AcDbEntity
  8
LAY-1
  6
CONTINUOUS
 62
     3
100
AcDbLine
 10
396.0999700000001
 20
51.875
 30
0.0
 11
396.0999700000001
 21
55.49999999999974
 31
0.0
  0
LINE
  5
27A
330
1F
100
AcDbEntity
  8
LAY-1
  6
CONTINUOUS
 62
     3
100
AcDbLine
 10
497.6
 20
55.49999999999989
 30
0.0
 11
497.6
 21
67.49999999999989
 31
0.0
  0
LINE
  5
27B
330
1F
100
AcDbEntity
  8
LAY-1
  6
CONTINUOUS
 62
     3
100
AcDbLine
 10
497.5999840000002
 20
51.50000000000006
 30
0.0
 11
497.5999840000002
 21
39.5
 31
0.0
  0
LINE
  5
27C
330
1F
100
AcDbEntity
  8
LAY-1
  6
CONTINUOUS
 62
     3
100
AcDbLine
 10
495.85
 20
70.49999999999994
 30
0.0
 11
495.85
 21
67.49999999999989
 31
0.0
  0
LINE
  5
27D
330
1F
100
AcDbEntity
  8
LAY-1
  6
CONTINUOUS
 62
     3
100
AcDbLine
 10
474.1303040000001
 20
39.50000000000004
 30
0.0
 11
496.0696960000001
 21
39.50000000000006
 31
0.0
  0
LINE
  5
27E
330
1F
100
AcDbEntity
  8
LAY-1
  6
CONTINUOUS
 62
     3
100
AcDbLine
 10
494.1000300000001
 20
31.50000000000004
 30
0.0
 11
476.1000300000001
 21
31.50000000000004
 31
0.0
  0
LINE
  5
27F
330
1F
100
AcDbEntity
  8
LAY-1
  6
CONTINUOUS
 62
     3
100
AcDbLine
 10
476.1000300000001
 20
31.50000000000004
 30
0.0
 11
474.1302420000001
 21
32.63726800000005
 31
0.0
  0
ARC
  5
280
330
1F
100
AcDbEntity
  8
LAY-1
  6
CONTINUOUS
 62
     3
100
AcDbCircle
 10
485.1006400000001
 20
45.29477000000007
 30
0.0
 40
13.794775
100
AcDbArc
 50
246.5695410695425
 51
293.4257430764438
  0
ARC
  5
281
330
1F
100
AcDbEntity
  8
LAY-1
  6
CONTINUOUS
 62
     3
100
AcDbCircle
 10
476.0141540000001
 20
37.76986700000008
 30
0.0
 40
6.271714
100
AcDbArc
 50
270.7846855482744
 51
305.0556976977886
  0
LINE
  5
282
330
1F
100
AcDbEntity
  8
LAY-1
  6
CONTINUOUS
 62
     3
100
AcDbLine
 10
494.1000300000001
 20
31.50000000000004
 30
0.0
 11
496.0698180000001
 21
32.63726800000006
 31
0.0
  0
ARC
  5
283
330
1F
100
AcDbEntity
  8
LAY-1
  6
CONTINUOUS
 62
     3
100
AcDbCircle
 10
494.1859070000002
 20
37.76986700000008
 30
0.0
 40
6.271714
100
AcDbArc
 50
234.9443023022116
 51
269.2153144517252
  0
LINE
  5
284
330
1F
100
AcDbEntity
  8
LAY-1
  6
CONTINUOUS
 62
     3
100
AcDbLine
 10
474.1303040000001
 20
39.50000000000004
 30
0.0
 11
474.1302730000001
 21
32.63726800000005
 31
0.0
  0
LINE
  5
285
330
1F
100
AcDbEntity
  8
LAY-1
  6
CONTINUOUS
 62
     3
100
AcDbLine
 10
479.6152890000001
 20
39.49993900000008
 30
0.0
 11
479.6152580000001
 21
32.63726800000005
 31
0.0
  0
LINE
  5
286
330
1F
100
AcDbEntity
  8
LAY-1
  6
CONTINUOUS
 62
     3
100
AcDbLine
 10
490.5848020000001
 20
39.49993900000008
 30
0.0
 11
490.5847870000001
 21
32.63726800000005
 31
0.0
  0
LINE
  5
287
330
1F
100
AcDbEntity
  8
LAY-1
  6
CONTINUOUS
 62
     3
100
AcDbLine
 10
496.0698020000002
 20
39.50000000000006
 30
0.0
 11
496.0697870000001
 21
32.63726800000006
 31
0.0
  0
LINE
  5
288
330
1F
100
AcDbEntity
  8
LAY-1
  6
CONTINUOUS
 62
     3
100
AcDbLine
 10
491.1000300000001
 20
54.50000000000004
 30
0.0
 11
479.1000300000001
 21
54.50000000000004
 31
0.0
  0
LINE
  5
289
330
1F
100
AcDbEntity
  8
LAY-1
  6
CONTINUOUS
 62
     1
100
AcDbLine
 10
479.1000300000001
 20
51.87500000000004
 30
0.0
 11
480.0470520000001
 21
54.50000000000004
 31
0.0
  0
LINE
  5
28A
330
1F
100
AcDbEntity
  8
LAY-1
  6
CONTINUOUS
 62
     1
100
AcDbLine
 10
491.1000300000001
 20
51.87500000000004
 30
0.0
 11
490.1530090000001
 21
54.50000000000004
 31
0.0
  0
ARC
  5
28B
330
1F
100
AcDbEntity
  8
LAY-1
  6
CONTINUOUS
 62
     3
100
AcDbCircle
 10
491.7000360000001
 20
40.10000700000005
 30
0.0
 40
0.6
100
AcDbArc
 50
179.9999988761267
 51
180.0
  0
LINE
  5
28C
330
1F
100
AcDbEntity
  8
LAY-1
  6
CONTINUOUS
 62
     3
100
AcDbLine
 10
491.1000300000001
 20
51.87500000000004
 30
0.0
 11
491.1000300000001
 21
51.50000000000004
 31
0.0
  0
ARC
  5
28D
330
1F
100
AcDbEntity
  8
LAY-1
  6
CONTINUOUS
 62
     3
100
AcDbCircle
 10
478.5000240000001
 20
40.10000700000005
 30
0.0
 40
0.6
100
AcDbArc
 50
0.0
 51
0.0000011238733309
  0
LINE
  5
28E
330
1F
100
AcDbEntity
  8
LAY-1
  6
CONTINUOUS
 62
     3
100
AcDbLine
 10
479.1000300000001
 20
51.87500000000004
 30
0.0
 11
479.1000300000001
 21
51.50000000000004
 31
0.0
  0
LINE
  5
28F
330
1F
100
AcDbEntity
  8
LAY-1
  6
CONTINUOUS
 62
     3
100
AcDbLine
 10
491.1000300000001
 20
51.87500000000004
 30
0.0
 11
491.1000300000001
 21
55.49999999999982
 31
0.0
  0
LINE
  5
290
330
1F
100
AcDbEntity
  8
LAY-1
  6
CONTINUOUS
 62
     1
100
AcDbLine
 10
490.1530090000001
 20
54.50000000000004
 30
0.0
 11
490.1530090000001
 21
55.49999999999982
 31
0.0
  0
LINE
  5
291
330
1F
100
AcDbEntity
  8
LAY-1
  6
CONTINUOUS
 62
     1
100
AcDbLine
 10
480.0470520000001
 20
54.50000000000004
 30
0.0
 11
480.0470520000001
 21
55.49999999999979
 31
0.0
  0
LINE
  5
292
330
1F
100
AcDbEntity
  8
LAY-1
  6
CONTINUOUS
 62
     3
100
AcDbLine
 10
479.1000300000001
 20
51.87500000000004
 30
0.0
 11
479.1000300000001
 21
55.49999999999979
 31
0.0
  0
LINE
  5
293
330
1F
100
AcDbEntity
  8
LAY-1
  6
CONTINUOUS
 62
     3
100
AcDbLine
 10
381.1000310000001
 20
80.49999999999999
 30
0.0
 11
379.1302430000001
 21
79.36273200000004
 31
0.0
  0
ARC
  5
294
330
1F
100
AcDbEntity
  8
LAY-1
  6
CONTINUOUS
 62
     3
100
AcDbCircle
 10
381.0141540000001
 20
74.23013300000001
 30
0.0
 40
6.271714
100
AcDbArc
 50
54.944302302212
 51
89.21531445172569
  0
LINE
  5
295
330
1F
100
AcDbEntity
  8
LAY-1
  6
CONTINUOUS
 62
     3
100
AcDbLine
 10
379.130273
 20
79.36273200000004
 30
0.0
 11
379.1303040000001
 21
70.49999999999999
 31
0.0
  0
LINE
  5
296
330
1F
100
AcDbEntity
  8
LAY-1
  6
CONTINUOUS
 62
     3
100
AcDbLine
 10
384.615259
 20
79.36273200000004
 30
0.0
 11
384.6152740000001
 21
70.500061
 31
0.0
  0
LINE
  5
297
330
1F
100
AcDbEntity
  8
LAY-1
  6
CONTINUOUS
 62
     3
100
AcDbLine
 10
494.0999690000001
 20
80.50000000000006
 30
0.0
 11
496.0697570000001
 21
79.36273200000011
 31
0.0
  0
ARC
  5
298
330
1F
100
AcDbEntity
  8
LAY-1
  6
CONTINUOUS
 62
     3
100
AcDbCircle
 10
494.1858460000001
 20
74.23013300000008
 30
0.0
 40
6.271714
100
AcDbArc
 50
90.78468554827379
 51
125.0556976977884
  0
LINE
  5
299
330
1F
100
AcDbEntity
  8
LAY-1
  6
CONTINUOUS
 62
     3
100
AcDbLine
 10
496.0697270000001
 20
79.36273200000011
 30
0.0
 11
496.069696
 21
70.50000000000006
 31
0.0
  0
LINE
  5
29A
330
1F
100
AcDbEntity
  8
LAY-1
  6
CONTINUOUS
 62
     3
100
AcDbLine
 10
490.5847410000001
 20
79.36273200000011
 30
0.0
 11
490.584726
 21
70.50006100000007
 31
0.0
  0
LINE
  5
29B
330
1F
100
AcDbEntity
  8
LAY-1
  6
CONTINUOUS
 62
     3
100
AcDbLine
 10
497.6
 20
67.49999999999989
 30
0.0
 11
476.7918358845307
 21
67.49999999999987
 31
0.0
  0
LINE
  5
29C
330
1F
100
AcDbEntity
  8
LAY-1
  6
CONTINUOUS
 62
     3
100
AcDbLine
 10
398.4081641154695
 20
67.49999999999983
 30
0.0
 11
377.6000000000002
 21
67.49999999999982
 31
0.0
  0
LINE
  5
29D
330
1F
100
AcDbEntity
  8
LAY-1
  6
CONTINUOUS
 62
     3
100
AcDbLine
 10
394.2987298107784
 20
70.49999999999983
 30
0.0
 11
379.3500000000001
 21
70.49999999999984
 31
0.0
  0
LINE
  5
29E
330
1F
100
AcDbEntity
  8
LAY-1
  6
CONTINUOUS
 62
     3
100
AcDbLine
 10
379.1303040000001
 20
70.49999999999999
 30
0.0
 11
394.2987298107781
 21
70.5
 31
0.0
  0
LINE
  5
29F
330
1F
100
AcDbEntity
  8
LAY-1
  6
CONTINUOUS
 62
     3
100
AcDbLine
 10
496.069696
 20
70.50000000000006
 30
0.0
 11
480.901270189222
 21
70.50000000000004
 31
0.0
  0
LINE
  5
2A0
330
1F
100
AcDbEntity
  8
LAY-1
  6
CONTINUOUS
 62
     3
100
AcDbLine
 10
480.9012701892218
 20
70.49999999999987
 30
0.0
 11
495.8500000000001
 21
70.49999999999994
 31
0.0
  0
ARC
  5
2A1
330
1F
100
AcDbEntity
  8
LAY-1
  6
CONTINUOUS
 62
     3
100
AcDbCircle
 10
485.0993590000002
 20
66.70523100000007
 30
0.0
 40
13.794775
100
AcDbArc
 50
66.56954106954255
 51
67.69308680758611
  0
LINE
  5
2A2
330
1F
100
AcDbEntity
  8
LAY-1
  6
CONTINUOUS
 62
     3
100
AcDbLine
 10
491.2190264738181
 20
80.50000000000006
 30
0.0
 11
494.0999690000001
 21
80.50000000000006
 31
0.0
  0
ARC
  5
2A3
330
1F
100
AcDbEntity
  8
LAY-1
  6
CONTINUOUS
 62
     3
100
AcDbCircle
 10
390.1006410000001
 20
66.70523100000003
 30
0.0
 40
13.794775
100
AcDbArc
 50
112.306913192415
 51
113.4304589304577
  0
LINE
  5
2A4
330
1F
100
AcDbEntity
  8
LAY-1
  6
CONTINUOUS
 62
     3
100
AcDbLine
 10
383.980973526182
 20
80.49999999999999
 30
0.0
 11
381.1000310000001
 21
80.49999999999999
 31
0.0
  0
LINE
  5
2A5
330
1F
100
AcDbEntity
  8
LAY-1
  6
EXLTYPE0
 62
     1
100
AcDbLine
 10
390.1000000000003
 20
26.3
 30
0.0
 11
390.1
 21
83.9
 31
0.0
  0
LINE
  5
2A6
330
1F
100
AcDbEntity
  8
LAY-1
  6
EXLTYPE0
 62
     1
100
AcDbLine
 10
485.1
 20
26.30000000000005
 30
0.0
 11
485.0999999999999
 21
83.89999999999988
 31
0.0
  0
LINE
  5
2A7
330
1F
100
AcDbEntity
  8
LAY-1
  6
EXLTYPE2
 62
     1
100
AcDbLine
 10
172.5
 20
221.9
 30
0.0
 11
172.5
 21
28.2
 31
0.0
  0
ENDSEC
  0
SECTION
  2
OBJECTS
  0
DICTIONARY
  5
C
330
0
100
AcDbDictionary
  3
ACAD_GROUP
350
D
  3
ACAD_LAYOUT
350
1A
  3
ACAD_MATERIAL
350
43
  3
ACAD_MLEADERSTYLE
350
6B
  3
ACAD_MLINESTYLE
350
17
  3
ACAD_PLOTSETTINGS
350
19
  3
ACAD_SCALELIST
350
47
  3
ACAD_VISUALSTYLE
350
2A
  3
ACDBHEADERROUNDTRIPXREC
350
2A8
  3
ACDBVARIABLEDICTIONARY
350
2C9
  0
DICTIONARY
  5
2D2
330
8
100
AcDbDictionary
280
     1
  3
ACAD_XREC_ROUNDTRIP
360
2D3
  0
DICTIONARY
  5
D
102
{ACAD_REACTORS
330
C
102
}
330
C
100
AcDbDictionary
  0
DICTIONARY
  5
1A
102
{ACAD_REACTORS
330
C
102
}
330
C
100
AcDbDictionary
  0
DICTIONARY
  5
43
102
{ACAD_REACTORS
330
C
102
}
330
C
100
AcDbDictionary
  3
BYBLOCK
350
45
  3
BYLAYER
350
44
  3
GLOBAL
350
46
  0
DICTIONARY
  5
6B
102
{ACAD_REACTORS
330
C
102
}
330
C
100
AcDbDictionary
  3
STANDARD
350
6C
  0
DICTIONARY
  5
17
102
{ACAD_REACTORS
330
C
102
}
330
C
100
AcDbDictionary
  3
STANDARD
350
18
  0
DICTIONARY
  5
19
102
{ACAD_REACTORS
330
C
102
}
330
C
100
AcDbDictionary
  0
DICTIONARY
  5
47
102
{ACAD_REACTORS
330
C
102
}
330
C
100
AcDbDictionary
  3
A0
350
48
  3
A1
350
49
  3
A2
350
4A
  3
A3
350
4B
  3
A4
350
4C
  3
A5
350
4D
  3
A6
350
4E
  3
A7
350
4F
  3
A8
350
50
  3
A9
350
51
  3
B0
350
52
  3
B1
350
53
  3
B2
350
54
  3
B3
350
55
  3
B4
350
56
  3
B5
350
57
  3
B6
350
58
  3
B7
350
59
  3
B8
350
5A
  3
B9
350
5B
  3
C0
350
5C
  3
C1
350
5D
  3
C2
350
5E
  3
C3
350
5F
  3
C4
350
60
  3
C5
350
61
  3
C6
350
62
  3
C7
350
63
  3
C8
350
64
  3
C9
350
65
  3
D0
350
66
  3
D1
350
67
  3
D2
350
68
  0
DICTIONARY
  5
2A
102
{ACAD_REACTORS
330
C
102
}
330
C
100
AcDbDictionary
  3
2DWIREFRAME
350
2F
  3
BASIC
350
32
  3
BRIGHTEN
350
36
  3
COLORCHANGE
350
3A
  3
CONCEPTUAL
350
34
  3
DIM
350
35
  3
EDGECOLOROFF
350
3D
  3
FACEPATTERN
350
39
  3
FLAT
350
2B
  3
FLATWITHEDGES
350
2C
  3
GOURAUD
350
2D
  3
GOURAUDWITHEDGES
350
2E
  3
HIDDEN
350
31
  3
JITTEROFF
350
3B
  3
LINEPATTERN
350
38
  3
OVERHANGOFF
350
3C
  3
REALISTIC
350
33
  3
SHADED
350
42
  3
SHADED_WITH_EDGES
350
41
  3
SHADES_OF_GRAY
350
3E
  3
SKETCHY
350
3F
  3
THICKEN
350
37
  3
WIREFRAME
350
30
  3
X-RAY
350
40
  0
DICTIONARY
  5
2A8
102
{ACAD_REACTORS
330
C
102
}
330
C
100
AcDbDictionary
  3
CEPSNID
350
2B2
  3
CEPSNTYPE
350
2B1
  3
DIMSTYLEDATA
350
2C8
  3
FINGERPRINTGUID
350
2B3
  3
HYPERLINKBASE
350
2AB
  3
INSUNITS
350
2B0
  3
LAYOUTDICT
350
2AD
  3
LWETCUNION
350
2AF
  3
PLOTSETDICT
350
2AE
  3
PSVPSCALE
350
2B5
  3
PUCSBASE
350
2B8
  3
PUCSORGBACK
350
2BE
  3
PUCSORGBOTTOM
350
2BA
  3
PUCSORGFRONT
350
2BD
  3
PUCSORGLEFT
350
2BB
  3
PUCSORGRIGHT
350
2BC
  3
PUCSORGTOP
350
2B9
  3
PUCSORTHOREF
350
2B6
  3
PUCSORTHOVIEW
350
2B7
  3
STYLESHEET
350
2AC
  3
TSTACKALIGN
350
2A9
  3
TSTACKSIZE
350
2AA
  3
UCSBASE
350
2C1
  3
UCSORGBACK
350
2C7
  3
UCSORGBOTTOM
350
2C3
  3
UCSORGFRONT
350
2C6
  3
UCSORGLEFT
350
2C4
  3
UCSORGRIGHT
350
2C5
  3
UCSORGTOP
350
2C2
  3
UCSORTHOREF
350
2BF
  3
UCSORTHOVIEW
350
2C0
  3
VERSIONGUID
350
2B4
  0
DICTIONARY
  5
2C9
102
{ACAD_REACTORS
330
C
102
}
330
C
100
AcDbDictionary
  3
CANNOSCALE
350
2D4
  3
CMLEADERSTYLE
350
2CB
  3
CTABLESTYLE
350
2CA
  3
DIMASSOC
350
2D0
  3
HIDETEXT
350
2D1
  3
MSLTSCALE
350
2D5
  3
PSOLHEIGHT
350
2CD
  3
PSOLWIDTH
350
2CC
  0
XRECORD
  5
2D3
102
{ACAD_REACTORS
330
2D2
102
}
330
2D2
100
AcDbXrecord
102
VTR_0.000_0.000_1.000_1.000_VISUALSTYLE
340
2F
102
VTR_0.000_0.000_1.000_1.000_GRIDDISPLAY
 70
     3
102
VTR_0.000_0.000_1.000_1.000_GRIDMAJOR
 70
     5
102
VTR_0.000_0.000_1.000_1.000_DEFAULTLIGHTING
280
     1
102
VTR_0.000_0.000_1.000_1.000_DEFAULTLIGHTINGTYPE
 70
     1
102
VTR_0.000_0.000_1.000_1.000_BRIGHTNESS
141
0.0
102
VTR_0.000_0.000_1.000_1.000_CONTRAST
142
0.0
  0
MATERIAL
  5
45
102
{ACAD_REACTORS
330
43
102
}
102
{ACAD_XDICTIONARY
360
2D8
102
}
330
43
100
AcDbMaterial
  1
BYBLOCK
  0
MATERIAL
  5
44
102
{ACAD_REACTORS
330
43
102
}
102
{ACAD_XDICTIONARY
360
2D6
102
}
330
43
100
AcDbMaterial
  1
BYLAYER
  0
MATERIAL
  5
46
102
{ACAD_REACTORS
330
43
102
}
102
{ACAD_XDICTIONARY
360
2DA
102
}
330
43
100
AcDbMaterial
  1
GLOBAL
  0
ACAD_PROXY_OBJECT
  5
6C
102
{ACAD_REACTORS
330
6B
102
}
330
6B
100
AcDbProxyObject
 90
      499
 91
      505
 93
      610
310
40901902A4063FBFFFFFE0000000000000020400000000000020404214DD185B99185C990000000000000104090141901A00000000000004100000000000000041025764000000000000039000
340
14
340
0
340
11
340
0
 94
        0
1001
ACAD_MLEADERVER
1070
     2
  0
MLINESTYLE
  5
18
102
{ACAD_REACTORS
330
17
102
}
330
17
100
AcDbMlineStyle
  2
Standard
 70
     0
  3

 62
   256
 51
90.0
 52
90.0
 71
     2
 49
0.5
 62
   256
  6
BYLAYER
 49
-0.5
 62
   256
  6
BYLAYER
  0
ACAD_PROXY_OBJECT
  5
48
102
{ACAD_REACTORS
330
47
102
}
330
47
100
AcDbProxyObject
 90
      499
 91
      503
 93
       41
310
903313A31580
  0
ACAD_PROXY_OBJECT
  5
49
102
{ACAD_REACTORS
330
47
102
}
330
47
100
AcDbProxyObject
 90
      499
 91
      503
 93
      105
310
903313A324000000000000004000
  0
ACAD_PROXY_OBJECT
  5
4A
102
{ACAD_REACTORS
330
47
102
}
330
47
100
AcDbProxyObject
 90
      499
 91
      503
 93
      105
310
903313A344000000000000104000
  0
ACAD_PROXY_OBJECT
  5
4B
102
{ACAD_REACTORS
330
47
102
}
330
47
100
AcDbProxyObject
 90
      499
 91
      503
 93
      105
310
903313A354000000000000144000
  0
ACAD_PROXY_OBJECT
  5
4C
102
{ACAD_REACTORS
330
47
102
}
330
47
100
AcDbProxyObject
 90
      499
 91
      503
 93
      105
310
903313A384000000000000204000
  0
ACAD_PROXY_OBJECT
  5
4D
102
{ACAD_REACTORS
330
47
102
}
330
47
100
AcDbProxyObject
 90
      499
 91
      503
 93
      113
310
904313A31304000000000000244000
  0
ACAD_PROXY_OBJECT
  5
4E
102
{ACAD_REACTORS
330
47
102
}
330
47
100
AcDbProxyObject
 90
      499
 91
      503
 93
      113
310
904313A31364000000000000304000
  0
ACAD_PROXY_OBJECT
  5
4F
102
{ACAD_REACTORS
330
47
102
}
330
47
100
AcDbProxyObject
 90
      499
 91
      503
 93
      113
310
904313A32304000000000000344000
  0
ACAD_PROXY_OBJECT
  5
50
102
{ACAD_REACTORS
330
47
102
}
330
47
100
AcDbProxyObject
 90
      499
 91
      503
 93
      113
310
904313A333040000000000003E4000
  0
ACAD_PROXY_OBJECT
  5
51
102
{ACAD_REACTORS
330
47
102
}
330
47
100
AcDbProxyObject
 90
      499
 91
      503
 93
      113
310
904313A34304000000000000444000
  0
ACAD_PROXY_OBJECT
  5
52
102
{ACAD_REACTORS
330
47
102
}
330
47
100
AcDbProxyObject
 90
      499
 91
      503
 93
      113
310
904313A35304000000000000494000
  0
ACAD_PROXY_OBJECT
  5
53
102
{ACAD_REACTORS
330
47
102
}
330
47
100
AcDbProxyObject
 90
      499
 91
      503
 93
      121
310
905313A3130304000000000000594000
  0
ACAD_PROXY_OBJECT
  5
54
102
{ACAD_REACTORS
330
47
102
}
330
47
100
AcDbProxyObject
 90
      499
 91
      503
 93
      105
310
903323A310000000000000010100
  0
ACAD_PROXY_OBJECT
  5
55
102
{ACAD_REACTORS
330
47
102
}
330
47
100
AcDbProxyObject
 90
      499
 91
      503
 93
      105
310
903343A310000000000000410100
  0
ACAD_PROXY_OBJECT
  5
56
102
{ACAD_REACTORS
330
47
102
}
330
47
100
AcDbProxyObject
 90
      499
 91
      503
 93
      105
310
903383A310000000000000810100
  0
ACAD_PROXY_OBJECT
  5
57
102
{ACAD_REACTORS
330
47
102
}
330
47
100
AcDbProxyObject
 90
      499
 91
      503
 93
      113
310
90431303A310000000000000910100
  0
ACAD_PROXY_OBJECT
  5
58
102
{ACAD_REACTORS
330
47
102
}
330
47
100
AcDbProxyObject
 90
      499
 91
      503
 93
      121
310
9053130303A310000000000001650100
  0
ACAD_PROXY_OBJECT
  5
59
102
{ACAD_REACTORS
330
47
102
}
330
47
100
AcDbProxyObject
 90
      499
 91
      503
 93
      257
310
90E312F31323822203D2031272D3022000000000000200FC000000000000284000
  0
ACAD_PROXY_OBJECT
  5
5A
102
{ACAD_REACTORS
330
47
102
}
330
47
100
AcDbProxyObject
 90
      499
 91
      503
 93
      249
310
90D312F363422203D2031272D3022000000000000240FC000000000000284000
  0
ACAD_PROXY_OBJECT
  5
5B
102
{ACAD_REACTORS
330
47
102
}
330
47
100
AcDbProxyObject
 90
      499
 91
      503
 93
      249
310
90D312F333222203D2031272D3022000000000000280FC000000000000284000
  0
ACAD_PROXY_OBJECT
  5
5C
102
{ACAD_REACTORS
330
47
102
}
330
47
100
AcDbProxyObject
 90
      499
 91
      503
 93
      249
310
90D312F313622203D2031272D30220000000000002C0FC000000000000284000
  0
ACAD_PROXY_OBJECT
  5
5D
102
{ACAD_REACTORS
330
47
102
}
330
47
100
AcDbProxyObject
 90
      499
 91
      503
 93
      249
310
90D332F333222203D2031272D30220000000000002E0FC000000000000284000
  0
ACAD_PROXY_OBJECT
  5
5E
102
{ACAD_REACTORS
330
47
102
}
330
47
100
AcDbProxyObject
 90
      499
 91
      503
 93
      241
310
90C312F3822203D2031272D3022000000000000300FC000000000000284000
  0
ACAD_PROXY_OBJECT
  5
5F
102
{ACAD_REACTORS
330
47
102
}
330
47
100
AcDbProxyObject
 90
      499
 91
      503
 93
      249
310
90D332F313622203D2031272D3022000000000000320FC000000000000284000
  0
ACAD_PROXY_OBJECT
  5
60
102
{ACAD_REACTORS
330
47
102
}
330
47
100
AcDbProxyObject
 90
      499
 91
      503
 93
      241
310
90C312F3422203D2031272D3022000000000000340FC000000000000284000
  0
ACAD_PROXY_OBJECT
  5
61
102
{ACAD_REACTORS
330
47
102
}
330
47
100
AcDbProxyObject
 90
      499
 91
      503
 93
      241
310
90C332F3822203D2031272D3022000000000000360FC000000000000284000
  0
ACAD_PROXY_OBJECT
  5
62
102
{ACAD_REACTORS
330
47
102
}
330
47
100
AcDbProxyObject
 90
      499
 91
      503
 93
      241
310
90C312F3222203D2031272D3022000000000000380FC000000000000284000
  0
ACAD_PROXY_OBJECT
  5
63
102
{ACAD_REACTORS
330
47
102
}
330
47
100
AcDbProxyObject
 90
      499
 91
      503
 93
      241
310
90C332F3422203D2031272D30220000000000003A0FC000000000000284000
  0
ACAD_PROXY_OBJECT
  5
64
102
{ACAD_REACTORS
330
47
102
}
330
47
100
AcDbProxyObject
 90
      499
 91
      503
 93
      161
310
90A3122203D2031272D30224000000000000284000
  0
ACAD_PROXY_OBJECT
  5
65
102
{ACAD_REACTORS
330
47
102
}
330
47
100
AcDbProxyObject
 90
      499
 91
      503
 93
      257
310
90E312D312F3222203D2031272D30220000000000003E0FC000000000000284000
  0
ACAD_PROXY_OBJECT
  5
66
102
{ACAD_REACTORS
330
47
102
}
330
47
100
AcDbProxyObject
 90
      499
 91
      503
 93
      225
310
90A3322203D2031272D302200000000000002100000000000000284000
  0
ACAD_PROXY_OBJECT
  5
67
102
{ACAD_REACTORS
330
47
102
}
330
47
100
AcDbProxyObject
 90
      499
 91
      503
 93
      225
310
90A3622203D2031272D302200000000000006100000000000000284000
  0
ACAD_PROXY_OBJECT
  5
68
102
{ACAD_REACTORS
330
47
102
}
330
47
100
AcDbProxyObject
 90
      499
 91
      503
 93
      249
310
90D31272D3022203D2031272D30220000000000000A100000000000000284000
  0
ACAD_PROXY_OBJECT
  5
2F
102
{ACAD_REACTORS
330
2A
102
}
330
2A
100
AcDbProxyObject
 90
      499
 91
      501
 93
      436
310
42CC9915DA5C99599C985B595049028333333333333E33F0000000000000F90107901411070040501600405405064090741402480A0340
1001
ACAD
1000
AcDbSavedByObjectVersion
1070
     0
  0
ACAD_PROXY_OBJECT
  5
32
102
{ACAD_REACTORS
330
2A
102
}
330
2A
100
AcDbProxyObject
 90
      499
 91
      501
 93
      388
310
4150985CDA58D07406404333333333333E33F0000000000000F90107A41107004050150841D405064090741402480A0350
1001
ACAD
1000
AcDbSavedByObjectVersion
1070
     0
  0
ACAD_PROXY_OBJECT
  5
36
102
{ACAD_REACTORS
330
2A
102
}
330
2A
100
AcDbProxyObject
 90
      499
 91
      501
 93
      428
310
42109C9A59DA1D195B90C409028333333333333E33F0000000000000F9010790141107004050150841D405064090741402480A029950
1001
ACAD
1000
AcDbSavedByObjectVersion
1070
     0
  0
ACAD_PROXY_OBJECT
  5
3A
102
{ACAD_REACTORS
330
2A
102
}
330
2A
100
AcDbProxyObject
 90
      499
 91
      501
 93
      452
310
42D0DBDB1BDC90DA185B99D95104090240C333333333333E33F0000000000000F90108901411070040501508421405064090741402480A0350
1001
ACAD
1000
AcDbSavedByObjectVersion
1070
     0
  0
ACAD_PROXY_OBJECT
  5
34
102
{ACAD_REACTORS
330
2A
102
}
330
2A
100
AcDbProxyObject
 90
      499
 91
      501
 93
      500
310
4290DBDB98D95C1D1D585B10940D028333333333333E33F0000000000000F90107902409070040501000000000018199010841D405064090740C02480A0340
1001
ACAD
1000
AcDbSavedByObjectVersion
1070
     0
  0
ACAD_PROXY_OBJECT
  5
35
102
{ACAD_REACTORS
330
2A
102
}
330
2A
100
AcDbProxyObject
 90
      499
 91
      501
 93
      412
310
40D11A5B50B409028333333333333E33F0000000000000F9010790141107004050150841D405064090741402480A02677FFFFFD0
1001
ACAD
1000
AcDbSavedByObjectVersion
1070
     0
  0
ACAD_PROXY_OBJECT
  5
3D
102
{ACAD_REACTORS
330
2A
102
}
330
2A
100
AcDbProxyObject
 90
      499
 91
      501
 93
      452
310
43115919D950DBDB1BDC93D999916409028333333333333E33F0000000000000F9010790141107004050150841D405064090741402480A0350
1001
ACAD
1000
AcDbSavedByObjectVersion
1070
     0
  0
ACAD_PROXY_OBJECT
  5
39
102
{ACAD_REACTORS
330
2A
102
}
330
2A
100
AcDbProxyObject
 90
      499
 91
      501
 93
      444
310
42D19858D95C185D1D195C9B90F409028333333333333E33F0000000000000F9010790141107004050150841D405064090741402480A0350
1001
ACAD
1000
AcDbSavedByObjectVersion
1070
     0
  0
ACAD_PROXY_OBJECT
  5
2B
102
{ACAD_REACTORS
330
2A
102
}
330
2A
100
AcDbProxyObject
 90
      499
 91
      501
 93
      380
310
41119B185D240901404333333333333E33F0000000000000F9010740A907004050150841D405064090741402480A1B50
1001
ACAD
1000
AcDbSavedByObjectVersion
1070
     0
  0
ACAD_PROXY_OBJECT
  5
2C
102
{ACAD_REACTORS
330
2A
102
}
330
2A
100
AcDbProxyObject
 90
      499
 91
      501
 93
      468
310
43519B185D15DA5D1A115919D95CD0140901404333333333333E33F0000000000000F90107409019070040501600405405064090741402480A1B50
1001
ACAD
1000
AcDbSavedByObjectVersion
1070
     0
  0
ACAD_PROXY_OBJECT
  5
2D
102
{ACAD_REACTORS
330
2A
102
}
330
2A
100
AcDbProxyObject
 90
      499
 91
      501
 93
      404
310
41D1DBDD5C985D5910240902404333333333333E33F0000000000000F9010740A9070040501641D405064090741402480A1B50
1001
ACAD
1000
AcDbSavedByObjectVersion
1070
     0
  0
ACAD_PROXY_OBJECT
  5
2E
102
{ACAD_REACTORS
330
2A
102
}
330
2A
100
AcDbProxyObject
 90
      499
 91
      501
 93
      492
310
4411DBDD5C985D5915DA5D1A115919D95CD0340902404333333333333E33F0000000000000F90107409019070040501600405405064090741402480A1B50
1001
ACAD
1000
AcDbSavedByObjectVersion
1070
     0
  0
ACAD_PROXY_OBJECT
  5
31
102
{ACAD_REACTORS
330
2A
102
}
330
2A
100
AcDbProxyObject
 90
      499
 91
      501
 93
      476
310
41921A5919195B90640502408333333333333E33F0000000000000F901079024090700405020000000000001110200405405064090740C02480A0340
1001
ACAD
1000
AcDbSavedByObjectVersion
1070
     0
  0
ACAD_PROXY_OBJECT
  5
3B
102
{ACAD_REACTORS
330
2A
102
}
330
2A
100
AcDbProxyObject
 90
      499
 91
      501
 93
      428
310
42529A5D1D195C93D999914409028333333333333E33F0000000000000F9010790141107004050150A41D405064090741402480A0350
1001
ACAD
1000
AcDbSavedByObjectVersion
1070
     0
  0
ACAD_PROXY_OBJECT
  5
38
102
{ACAD_REACTORS
330
2A
102
}
330
2A
100
AcDbProxyObject
 90
      499
 91
      501
 93
      444
310
42D31A5B995C185D1D195C9B90E409028333333333333E33F0000000000000F9010790141107004050750841D405064090741402483A0350
1001
ACAD
1000
AcDbSavedByObjectVersion
1070
     0
  0
ACAD_PROXY_OBJECT
  5
3C
102
{ACAD_REACTORS
330
2A
102
}
330
2A
100
AcDbProxyObject
 90
      499
 91
      501
 93
      444
310
42D3DD995C9A185B99D3D999915409028333333333333E33F0000000000000F9010790141107004050150941D405064090741402480A0350
1001
ACAD
1000
AcDbSavedByObjectVersion
1070
     0
  0
ACAD_PROXY_OBJECT
  5
33
102
{ACAD_REACTORS
330
2A
102
}
330
2A
100
AcDbProxyObject
 90
      499
 91
      501
 93
      428
310
425499585B1A5CDD1A58D08409038333333333333E33F0000000000000F9010740A907004050150800405405064090740C02480A1B40
1001
ACAD
1000
AcDbSavedByObjectVersion
1070
     0
  0
ACAD_PROXY_OBJECT
  5
42
102
{ACAD_REACTORS
330
2A
102
}
330
2A
100
AcDbProxyObject
 90
      499
 91
      501
 93
      420
310
4194DA1859195911B40902404333333333333E33F0000000000000F9010740A41107004050150800405405064090840C02480A0B40
1001
ACAD
1000
AcDbSavedByObjectVersion
1070
     0
  0
ACAD_PROXY_OBJECT
  5
41
102
{ACAD_REACTORS
330
2A
102
}
330
2A
100
AcDbProxyObject
 90
      499
 91
      501
 93
      516
310
4454DA18591959081DDA5D1A08195919D95CD1A40902404333333333333E33F0000000000000F901074090142907004050250800405405064090740C02480A0B40
1001
ACAD
1000
AcDbSavedByObjectVersion
1070
     0
  0
ACAD_PROXY_OBJECT
  5
3E
102
{ACAD_REACTORS
330
2A
102
}
330
2A
100
AcDbProxyObject
 90
      499
 91
      501
 93
      532
310
4394DA1859195CC81BD98811DC985E5174090240C333333333333E33F0000000000000F901079024090741D01000000000000111010841D405064090740C02480A0340
1001
ACAD
1000
AcDbSavedByObjectVersion
1070
     0
  0
ACAD_PROXY_OBJECT
  5
3F
102
{ACAD_REACTORS
330
2A
102
}
330
2A
100
AcDbProxyObject
 90
      499
 91
      501
 93
      476
310
41D4DAD95D18DA1E51840502408333333333333E33F0000000000000F901079024090741D01000000000000111010B41D405064090741802480A0340
1001
ACAD
1000
AcDbSavedByObjectVersion
1070
     0
  0
ACAD_PROXY_OBJECT
  5
37
102
{ACAD_REACTORS
330
2A
102
}
330
2A
100
AcDbProxyObject
 90
      499
 91
      501
 93
      412
310
41D51A1A58DAD95B90D409028333333333333E33F0000000000000F9010790141107004050150C41D405064090741402480A0350
1001
ACAD
1000
AcDbSavedByObjectVersion
1070
     0
  0
ACAD_PROXY_OBJECT
  5
30
102
{ACAD_REACTORS
330
2A
102
}
330
2A
100
AcDbProxyObject
 90
      499
 91
      501
 93
      420
310
4255DA5C99599C985B595059028333333333333E33F0000000000000F90107901411070040501600405405064090740C02480A0340
1001
ACAD
1000
AcDbSavedByObjectVersion
1070
     0
  0
ACAD_PROXY_OBJECT
  5
40
102
{ACAD_REACTORS
330
2A
102
}
330
2A
100
AcDbProxyObject
 90
      499
 91
      501
 93
      404
310
41560B54985E51940902404000000000000E03F0000000000000F9010740501907004050150841D405064090740C02480A1B40
1001
ACAD
1000
AcDbSavedByObjectVersion
1070
     0
  0
XRECORD
  5
2B2
102
{ACAD_REACTORS
330
2A8
102
}
330
2A8
100
AcDbXrecord
340
0
  0
XRECORD
  5
2B1
102
{ACAD_REACTORS
330
2A8
102
}
330
2A8
100
AcDbXrecord
 90
        0
  0
XRECORD
  5
2C8
102
{ACAD_REACTORS
330
2A8
102
}
330
2A8
100
AcDbXrecord
1000
DSTYLE
1002
{
1070
   340
340
11
1002
}
  0
XRECORD
  5
2B3
102
{ACAD_REACTORS
330
2A8
102
}
330
2A8
100
AcDbXrecord
  1
{1222F4EE-ED86-45E0-9798-85ECA8F67A4F}
  0
XRECORD
  5
2AB
102
{ACAD_REACTORS
330
2A8
102
}
330
2A8
100
AcDbXrecord
  1

  0
XRECORD
  5
2B0
102
{ACAD_REACTORS
330
2A8
102
}
330
2A8
100
AcDbXrecord
 90
        4
  0
XRECORD
  5
2AD
102
{ACAD_REACTORS
330
2A8
102
}
330
2A8
100
AcDbXrecord
340
1A
  0
XRECORD
  5
2AF
102
{ACAD_REACTORS
330
2A8
102
}
330
2A8
100
AcDbXrecord
 90
    10781
  0
XRECORD
  5
2AE
102
{ACAD_REACTORS
330
2A8
102
}
330
2A8
100
AcDbXrecord
340
19
  0
XRECORD
  5
2B5
102
{ACAD_REACTORS
330
2A8
102
}
330
2A8
100
AcDbXrecord
 40
0.0
  0
XRECORD
  5
2B8
102
{ACAD_REACTORS
330
2A8
102
}
330
2A8
100
AcDbXrecord
340
0
  0
XRECORD
  5
2BE
102
{ACAD_REACTORS
330
2A8
102
}
330
2A8
100
AcDbXrecord
 10
0.0
 20
0.0
 30
0.0
  0
XRECORD
  5
2BA
102
{ACAD_REACTORS
330
2A8
102
}
330
2A8
100
AcDbXrecord
 10
0.0
 20
0.0
 30
0.0
  0
XRECORD
  5
2BD
102
{ACAD_REACTORS
330
2A8
102
}
330
2A8
100
AcDbXrecord
 10
0.0
 20
0.0
 30
0.0
  0
XRECORD
  5
2BB
102
{ACAD_REACTORS
330
2A8
102
}
330
2A8
100
AcDbXrecord
 10
0.0
 20
0.0
 30
0.0
  0
XRECORD
  5
2BC
102
{ACAD_REACTORS
330
2A8
102
}
330
2A8
100
AcDbXrecord
 10
0.0
 20
0.0
 30
0.0
  0
XRECORD
  5
2B9
102
{ACAD_REACTORS
330
2A8
102
}
330
2A8
100
AcDbXrecord
 10
0.0
 20
0.0
 30
0.0
  0
XRECORD
  5
2B6
102
{ACAD_REACTORS
330
2A8
102
}
330
2A8
100
AcDbXrecord
340
0
  0
XRECORD
  5
2B7
102
{ACAD_REACTORS
330
2A8
102
}
330
2A8
100
AcDbXrecord
 70
     0
  0
XRECORD
  5
2AC
102
{ACAD_REACTORS
330
2A8
102
}
330
2A8
100
AcDbXrecord
  1

  0
XRECORD
  5
2A9
102
{ACAD_REACTORS
330
2A8
102
}
330
2A8
100
AcDbXrecord
 90
        1
  0
XRECORD
  5
2AA
102
{ACAD_REACTORS
330
2A8
102
}
330
2A8
100
AcDbXrecord
 90
       70
  0
XRECORD
  5
2C1
102
{ACAD_REACTORS
330
2A8
102
}
330
2A8
100
AcDbXrecord
340
0
  0
XRECORD
  5
2C7
102
{ACAD_REACTORS
330
2A8
102
}
330
2A8
100
AcDbXrecord
 10
0.0
 20
0.0
 30
0.0
  0
XRECORD
  5
2C3
102
{ACAD_REACTORS
330
2A8
102
}
330
2A8
100
AcDbXrecord
 10
0.0
 20
0.0
 30
0.0
  0
XRECORD
  5
2C6
102
{ACAD_REACTORS
330
2A8
102
}
330
2A8
100
AcDbXrecord
 10
0.0
 20
0.0
 30
0.0
  0
XRECORD
  5
2C4
102
{ACAD_REACTORS
330
2A8
102
}
330
2A8
100
AcDbXrecord
 10
0.0
 20
0.0
 30
0.0
  0
XRECORD
  5
2C5
102
{ACAD_REACTORS
330
2A8
102
}
330
2A8
100
AcDbXrecord
 10
0.0
 20
0.0
 30
0.0
  0
XRECORD
  5
2C2
102
{ACAD_REACTORS
330
2A8
102
}
330
2A8
100
AcDbXrecord
 10
0.0
 20
0.0
 30
0.0
  0
XRECORD
  5
2BF
102
{ACAD_REACTORS
330
2A8
102
}
330
2A8
100
AcDbXrecord
340
0
  0
XRECORD
  5
2C0
102
{ACAD_REACTORS
330
2A8
102
}
330
2A8
100
AcDbXrecord
 70
     0
  0
XRECORD
  5
2B4
102
{ACAD_REACTORS
330
2A8
102
}
330
2A8
100
AcDbXrecord
  1
{FAEB1C32-E019-11D5-929B-00C0DF256EC4}
  0
DICTIONARYVAR
  5
2D4
102
{ACAD_REACTORS
330
2C9
102
}
330
2C9
100
DictionaryVariables
280
     0
  1
1:1
  0
DICTIONARYVAR
  5
2CB
102
{ACAD_REACTORS
330
2C9
102
}
330
2C9
100
DictionaryVariables
280
     0
  1
Standard
  0
DICTIONARYVAR
  5
2CA
102
{ACAD_REACTORS
330
2C9
102
}
330
2C9
100
DictionaryVariables
280
     0
  1
Standard
  0
DICTIONARYVAR
  5
2D0
102
{ACAD_REACTORS
330
2C9
102
}
330
2C9
100
DictionaryVariables
280
     0
  1
2
  0
DICTIONARYVAR
  5
2D1
102
{ACAD_REACTORS
330
2C9
102
}
330
2C9
100
DictionaryVariables
280
     0
  1
1
  0
DICTIONARYVAR
  5
2D5
102
{ACAD_REACTORS
330
2C9
102
}
330
2C9
100
DictionaryVariables
280
     0
  1
1
  0
DICTIONARYVAR
  5
2CD
102
{ACAD_REACTORS
330
2C9
102
}
330
2C9
100
DictionaryVariables
280
     0
  1
80.000000
  0
DICTIONARYVAR
  5
2CC
102
{ACAD_REACTORS
330
2C9
102
}
330
2C9
100
DictionaryVariables
280
     0
  1
5.000000
  0
DICTIONARY
  5
2D8
330
45
100
AcDbDictionary
280
     1
  3
ACAD_XREC_ROUNDTRIP
360
2D9
  0
DICTIONARY
  5
2D6
330
44
100
AcDbDictionary
280
     1
  3
ACAD_XREC_ROUNDTRIP
360
2D7
  0
DICTIONARY
  5
2DA
330
46
100
AcDbDictionary
280
     1
  3
ACAD_XREC_ROUNDTRIP
360
2DB
  0
XRECORD
  5
2D9
102
{ACAD_REACTORS
330
2D8
102
}
330
2D8
100
AcDbXrecord
102
MATERIAL
148
0.0
149
0.0
149
0.0
 93
        0
 94
      127
282
     0
 72
     1
 77
     1
171
     1
175
     1
179
     1
273
     0
  0
XRECORD
  5
2D7
102
{ACAD_REACTORS
330
2D6
102
}
330
2D6
100
AcDbXrecord
102
MATERIAL
148
0.0
149
0.0
149
0.0
 93
        0
 94
      127
282
     0
 72
     1
 77
     1
171
     1
175
     1
179
     1
273
     0
  0
XRECORD
  5
2DB
102
{ACAD_REACTORS
330
2DA
102
}
330
2DA
100
AcDbXrecord
102
MATERIAL
148
0.0
149
0.0
149
0.0
 93
        0
 94
      127
282
     0
 72
     1
 77
     1
171
     1
175
     1
179
     1
273
     0
  0
ENDSEC
  0
EOF
